  0
SECTION
  2
HEADER
  9
$ACADVER
  1
AC1018
  9
$ACADMAINTVER
 70
     0
  9
$DWGCODEPAGE
  3
ANSI_1252
  9
$INSBASE
 10
0.0
 20
0.0
 30
0.0
  9
$EXTMIN
 10
1.000000000000000E+20
 20
1.000000000000000E+20
 30
1.000000000000000E+20
  9
$EXTMAX
 10
-1.000000000000000E+20
 20
-1.000000000000000E+20
 30
-1.000000000000000E+20
  9
$LIMMIN
 10
0.0
 20
0.0
  9
$LIMMAX
 10
12.0
 20
9.0
  9
$ORTHOMODE
 70
     0
  9
$REGENMODE
 70
     1
  9
$FILLMODE
 70
     1
  9
$QTEXTMODE
 70
     0
  9
$MIRRTEXT
 70
     1
  9
$LTSCALE
 40
1.0
  9
$ATTMODE
 70
     1
  9
$TEXTSIZE
 40
0.2
  9
$TRACEWID
 40
0.05
  9
$TEXTSTYLE
  7
Standard
  9
$CLAYER
  8
0
  9
$CELTYPE
  6
ByLayer
  9
$CECOLOR
 62
   256
  9
$CELTSCALE
 40
1.0
  9
$DISPSILH
 70
     0
  9
$DIMSCALE
 40
1.0
  9
$DIMASZ
 40
0.18
  9
$DIMEXO
 40
0.0625
  9
$DIMDLI
 40
0.38
  9
$DIMRND
 40
0.0
  9
$DIMDLE
 40
0.0
  9
$DIMEXE
 40
0.18
  9
$DIMTP
 40
0.0
  9
$DIMTM
 40
0.0
  9
$DIMTXT
 40
0.18
  9
$DIMCEN
 40
0.09
  9
$DIMTSZ
 40
0.0
  9
$DIMTOL
 70
     0
  9
$DIMLIM
 70
     0
  9
$DIMTIH
 70
     1
  9
$DIMTOH
 70
     1
  9
$DIMSE1
 70
     0
  9
$DIMSE2
 70
     0
  9
$DIMTAD
 70
     0
  9
$DIMZIN
 70
     0
  9
$DIMBLK
  1

  9
$DIMASO
 70
     1
  9
$DIMSHO
 70
     1
  9
$DIMPOST
  1

  9
$DIMAPOST
  1

  9
$DIMALT
 70
     0
  9
$DIMALTD
 70
     2
  9
$DIMALTF
 40
25.4
  9
$DIMLFAC
 40
1.0
  9
$DIMTOFL
 70
     0
  9
$DIMTVP
 40
0.0
  9
$DIMTIX
 70
     0
  9
$DIMSOXD
 70
     0
  9
$DIMSAH
 70
     0
  9
$DIMBLK1
  1

  9
$DIMBLK2
  1

  9
$DIMSTYLE
  2
Standard
  9
$DIMCLRD
 70
     0
  9
$DIMCLRE
 70
     0
  9
$DIMCLRT
 70
     0
  9
$DIMTFAC
 40
1.0
  9
$DIMGAP
 40
0.09
  9
$DIMJUST
 70
     0
  9
$DIMSD1
 70
     0
  9
$DIMSD2
 70
     0
  9
$DIMTOLJ
 70
     1
  9
$DIMTZIN
 70
     0
  9
$DIMALTZ
 70
     0
  9
$DIMALTTZ
 70
     0
  9
$DIMUPT
 70
     0
  9
$DIMDEC
 70
     4
  9
$DIMTDEC
 70
     4
  9
$DIMALTU
 70
     2
  9
$DIMALTTD
 70
     2
  9
$DIMTXSTY
  7
Standard
  9
$DIMAUNIT
 70
     0
  9
$DIMADEC
 70
     0
  9
$DIMALTRND
 40
0.0
  9
$DIMAZIN
 70
     0
  9
$DIMDSEP
 70
    46
  9
$DIMATFIT
 70
     3
  9
$DIMFRAC
 70
     0
  9
$DIMLDRBLK
  1

  9
$DIMLUNIT
 70
     2
  9
$DIMLWD
 70
    -2
  9
$DIMLWE
 70
    -2
  9
$DIMTMOVE
 70
     0
  9
$LUNITS
 70
     2
  9
$LUPREC
 70
     4
  9
$SKETCHINC
 40
0.1
  9
$FILLETRAD
 40
0.5
  9
$AUNITS
 70
     0
  9
$AUPREC
 70
     0
  9
$MENU
  1
.
  9
$ELEVATION
 40
0.0
  9
$PELEVATION
 40
0.0
  9
$THICKNESS
 40
0.0
  9
$LIMCHECK
 70
     0
  9
$CHAMFERA
 40
0.5
  9
$CHAMFERB
 40
0.5
  9
$CHAMFERC
 40
1.0
  9
$CHAMFERD
 40
0.0
  9
$SKPOLY
 70
     0
  9
$TDCREATE
 40
2456639.764981678
  9
$TDUCREATE
 40
2456639.723315012
  9
$TDUPDATE
 40
2456639.76498169
  9
$TDUUPDATE
 40
2456639.723315023
  9
$TDINDWG
 40
0.0000000116
  9
$TDUSRTIMER
 40
0.0000000116
  9
$USRTIMER
 70
     1
  9
$ANGBASE
 50
0.0
  9
$ANGDIR
 70
     0
  9
$PDMODE
 70
     0
  9
$PDSIZE
 40
0.0
  9
$PLINEWID
 40
0.0
  9
$SPLFRAME
 70
     0
  9
$SPLINETYPE
 70
     6
  9
$SPLINESEGS
 70
     8
  9
$HANDSEED
  5
5D
  9
$SURFTAB1
 70
     6
  9
$SURFTAB2
 70
     6
  9
$SURFTYPE
 70
     6
  9
$SURFU
 70
     6
  9
$SURFV
 70
     6
  9
$UCSBASE
  2

  9
$UCSNAME
  2

  9
$UCSORG
 10
0.0
 20
0.0
 30
0.0
  9
$UCSXDIR
 10
1.0
 20
0.0
 30
0.0
  9
$UCSYDIR
 10
0.0
 20
1.0
 30
0.0
  9
$UCSORTHOREF
  2

  9
$UCSORTHOVIEW
 70
     0
  9
$UCSORGTOP
 10
0.0
 20
0.0
 30
0.0
  9
$UCSORGBOTTOM
 10
0.0
 20
0.0
 30
0.0
  9
$UCSORGLEFT
 10
0.0
 20
0.0
 30
0.0
  9
$UCSORGRIGHT
 10
0.0
 20
0.0
 30
0.0
  9
$UCSORGFRONT
 10
0.0
 20
0.0
 30
0.0
  9
$UCSORGBACK
 10
0.0
 20
0.0
 30
0.0
  9
$PUCSBASE
  2

  9
$PUCSNAME
  2

  9
$PUCSORG
 10
0.0
 20
0.0
 30
0.0
  9
$PUCSXDIR
 10
1.0
 20
0.0
 30
0.0
  9
$PUCSYDIR
 10
0.0
 20
1.0
 30
0.0
  9
$PUCSORTHOREF
  2

  9
$PUCSORTHOVIEW
 70
     0
  9
$PUCSORGTOP
 10
0.0
 20
0.0
 30
0.0
  9
$PUCSORGBOTTOM
 10
0.0
 20
0.0
 30
0.0
  9
$PUCSORGLEFT
 10
0.0
 20
0.0
 30
0.0
  9
$PUCSORGRIGHT
 10
0.0
 20
0.0
 30
0.0
  9
$PUCSORGFRONT
 10
0.0
 20
0.0
 30
0.0
  9
$PUCSORGBACK
 10
0.0
 20
0.0
 30
0.0
  9
$USERI1
 70
     0
  9
$USERI2
 70
     0
  9
$USERI3
 70
     0
  9
$USERI4
 70
     0
  9
$USERI5
 70
     0
  9
$USERR1
 40
0.0
  9
$USERR2
 40
0.0
  9
$USERR3
 40
0.0
  9
$USERR4
 40
0.0
  9
$USERR5
 40
0.0
  9
$WORLDVIEW
 70
     1
  9
$SHADEDGE
 70
     3
  9
$SHADEDIF
 70
    70
  9
$TILEMODE
 70
     1
  9
$MAXACTVP
 70
    64
  9
$PINSBASE
 10
0.0
 20
0.0
 30
0.0
  9
$PLIMCHECK
 70
     0
  9
$PEXTMIN
 10
1.000000000000000E+20
 20
1.000000000000000E+20
 30
1.000000000000000E+20
  9
$PEXTMAX
 10
-1.000000000000000E+20
 20
-1.000000000000000E+20
 30
-1.000000000000000E+20
  9
$PLIMMIN
 10
0.0
 20
0.0
  9
$PLIMMAX
 10
12.0
 20
9.0
  9
$UNITMODE
 70
     0
  9
$VISRETAIN
 70
     1
  9
$PLINEGEN
 70
     0
  9
$PSLTSCALE
 70
     1
  9
$TREEDEPTH
 70
  3020
  9
$CMLSTYLE
  2
Standard
  9
$CMLJUST
 70
     0
  9
$CMLSCALE
 40
1.0
  9
$PROXYGRAPHICS
 70
     1
  9
$MEASUREMENT
 70
     0
  9
$CELWEIGHT
370
    -1
  9
$ENDCAPS
280
     0
  9
$JOINSTYLE
280
     0
  9
$LWDISPLAY
290
     1
  9
$INSUNITS
 70
     1
  9
$HYPERLINKBASE
  1

  9
$STYLESHEET
  1

  9
$XEDIT
290
     1
  9
$CEPSNTYPE
380
     0
  9
$PSTYLEMODE
290
     1
  9
$FINGERPRINTGUID
  2
{2088DADF-F822-4479-B7EF-13FFA54E0F49}
  9
$VERSIONGUID
  2
{FAEB1C32-E019-11D5-929B-00C0DF256EC4}
  9
$EXTNAMES
290
     1
  9
$PSVPSCALE
 40
0.0
  9
$OLESTARTUP
290
     0
  9
$SORTENTS
280
   127
  9
$INDEXCTL
280
     0
  9
$HIDETEXT
280
     1
  9
$XCLIPFRAME
290
     0
  9
$HALOGAP
280
     0
  9
$OBSCOLOR
 70
   257
  9
$OBSLTYPE
280
     0
  9
$INTERSECTIONDISPLAY
280
     0
  9
$INTERSECTIONCOLOR
 70
   257
  9
$DIMASSOC
280
     2
  9
$PROJECTNAME
  1

  0
ENDSEC
  0
SECTION
  2
CLASSES
  0
CLASS
  1
ACDBDICTIONARYWDFLT
  2
AcDbDictionaryWithDefault
  3
ObjectDBX Classes
 90
        0
 91
        3
280
     0
281
     0
  0
CLASS
  1
VISUALSTYLE
  2
AcDbVisualStyle
  3
ObjectDBX Classes
 90
     4095
 91
        3
280
     0
281
     0
  0
ENDSEC
  0
SECTION
  2
TABLES
  0
TABLE
  2
VPORT
  5
8
330
0
100
AcDbSymbolTable
 70
     1
  0
VPORT
  5
29
330
8
100
AcDbSymbolTableRecord
100
AcDbViewportTableRecord
  2
*Active
 70
     0
 10
0.0
 20
0.0
 11
1.0
 21
1.0
 12
0.0
 22
0.0
 13
0.0
 23
0.0
 14
0.5
 24
0.5
 15
0.5
 25
0.5
 16
0.0
 26
0.0
 36
1.0
 17
100.658972142804
 27
-89.19403887744107
 37
0.0
 40
178.3880777548821
 41
1.128539232101784
 42
50.0
 43
0.0
 44
0.0
 50
0.0
 51
0.0
 71
     0
 72
   100
 73
     1
 74
     3
 75
     0
 76
     0
 77
     0
 78
     0
281
     0
 65
     1
110
0.0
120
0.0
130
0.0
111
1.0
121
0.0
131
0.0
112
0.0
122
1.0
132
0.0
 79
     0
146
0.0
  0
ENDTAB
  0
TABLE
  2
LTYPE
  5
5
330
0
100
AcDbSymbolTable
 70
     1
  0
LTYPE
  5
14
330
5
100
AcDbSymbolTableRecord
100
AcDbLinetypeTableRecord
  2
ByBlock
 70
     0
  3

 72
    65
 73
     0
 40
0.0
  0
LTYPE
  5
15
330
5
100
AcDbSymbolTableRecord
100
AcDbLinetypeTableRecord
  2
ByLayer
 70
     0
  3

 72
    65
 73
     0
 40
0.0
  0
LTYPE
  5
16
330
5
100
AcDbSymbolTableRecord
100
AcDbLinetypeTableRecord
  2
Continuous
 70
     0
  3
Solid line
 72
    65
 73
     0
 40
0.0
  0
ENDTAB
  0
TABLE
  2
LAYER
  5
2
330
0
100
AcDbSymbolTable
 70
     2
  0
LAYER
  5
10
330
2
100
AcDbSymbolTableRecord
100
AcDbLayerTableRecord
  2
0
 70
     0
 62
     7
  6
Continuous
370
    -3
390
F
  0
LAYER
  5
3B
330
2
100
AcDbSymbolTableRecord
100
AcDbLayerTableRecord
  2
Ebene 1
 70
     0
 62
     7
  6
Continuous
370
    -3
390
F
  0
ENDTAB
  0
TABLE
  2
STYLE
  5
3
330
0
100
AcDbSymbolTable
 70
     1
  0
STYLE
  5
11
330
3
100
AcDbSymbolTableRecord
100
AcDbTextStyleTableRecord
  2
Standard
 70
     0
 40
0.0
 41
1.0
 50
0.0
 71
     0
 42
0.2
  3
txt
  4

  0
ENDTAB
  0
TABLE
  2
VIEW
  5
6
330
0
100
AcDbSymbolTable
 70
     0
  0
ENDTAB
  0
TABLE
  2
UCS
  5
7
330
0
100
AcDbSymbolTable
 70
     0
  0
ENDTAB
  0
TABLE
  2
APPID
  5
9
330
0
100
AcDbSymbolTable
 70
     1
  0
APPID
  5
12
330
9
100
AcDbSymbolTableRecord
100
AcDbRegAppTableRecord
  2
ACAD
 70
     0
  0
ENDTAB
  0
TABLE
  2
DIMSTYLE
  5
A
330
0
100
AcDbSymbolTable
 70
     1
100
AcDbDimStyleTable
  0
DIMSTYLE
105
27
330
A
100
AcDbSymbolTableRecord
100
AcDbDimStyleTableRecord
  2
Standard
 70
     0
340
11
  0
ENDTAB
  0
TABLE
  2
BLOCK_RECORD
  5
1
330
0
100
AcDbSymbolTable
 70
     1
  0
BLOCK_RECORD
  5
1F
330
1
100
AcDbSymbolTableRecord
100
AcDbBlockTableRecord
  2
*Model_Space
340
22
  0
BLOCK_RECORD
  5
1B
330
1
100
AcDbSymbolTableRecord
100
AcDbBlockTableRecord
  2
*Paper_Space
340
1E
  0
BLOCK_RECORD
  5
23
330
1
100
AcDbSymbolTableRecord
100
AcDbBlockTableRecord
  2
*Paper_Space0
340
26
  0
ENDTAB
  0
ENDSEC
  0
SECTION
  2
BLOCKS
  0
BLOCK
  5
20
330
1F
100
AcDbEntity
  8
0
100
AcDbBlockBegin
  2
*Model_Space
 70
     0
 71
     0
 10
0.0
 20
0.0
 30
0.0
  3
*Model_Space
  1

  0
ENDBLK
  5
21
330
1F
100
AcDbEntity
  8
0
100
AcDbBlockEnd
  0
BLOCK
  5
1C
330
1B
100
AcDbEntity
 67
     1
  8
0
100
AcDbBlockBegin
  2
*Paper_Space
 70
     0
 71
     0
 10
0.0
 20
0.0
 30
0.0
  3
*Paper_Space
  1

  0
ENDBLK
  5
1D
330
1B
100
AcDbEntity
 67
     1
  8
0
100
AcDbBlockEnd
  0
BLOCK
  5
24
330
23
100
AcDbEntity
  8
0
100
AcDbBlockBegin
  2
*Paper_Space0
 70
     0
 71
     0
 10
0.0
 20
0.0
 30
0.0
  3
*Paper_Space0
  1

  0
ENDBLK
  5
25
330
23
100
AcDbEntity
  8
0
100
AcDbBlockEnd
  0
ENDSEC
  0
SECTION
  2
ENTITIES
  0
SPLINE
  5
3C
330
1F
100
AcDbEntity
  8
Ebene 1
 62
   250
420
  1907995
370
    18
100
AcDbSpline
210
0.0
220
0.0
230
1.0
 70
    11
 71
     3
 72
    17
 73
    13
 74
     0
 42
0.0000000001
 43
0.0000000001
 40
0.0
 40
0.0
 40
0.0
 40
0.0
 40
1.0
 40
1.0
 40
1.0
 40
2.0
 40
2.0
 40
2.0
 40
3.0
 40
3.0
 40
3.0
 40
4.0
 40
4.0
 40
4.0
 40
4.0
 10
19.20106743226571
 20
-147.4256265907478
 30
0.0
 10
19.20106743226571
 20
-148.0329969247973
 30
0.0
 10
18.7087632874235
 20
-148.5256455791881
 30
0.0
 10
18.10104844382543
 20
-148.5256455791881
 30
0.0
 10
17.4931613454531
 20
-148.5256455791881
 30
0.0
 10
17.00102945538516
 20
-148.0329969247973
 30
0.0
 10
17.00102945538516
 20
-147.4256265907478
 30
0.0
 10
17.00102945538516
 20
-146.8179117471497
 30
0.0
 10
17.4931613454531
 20
-146.3256076023075
 30
0.0
 10
18.10104844382543
 20
-146.3256076023075
 30
0.0
 10
18.7087632874235
 20
-146.3256076023075
 30
0.0
 10
19.20106743226571
 20
-146.8179117471497
 30
0.0
 10
19.20106743226571
 20
-147.4256265907478
 30
0.0
  0
SPLINE
  5
3D
330
1F
100
AcDbEntity
  8
Ebene 1
 62
   250
420
  1907995
370
    18
100
AcDbSpline
210
0.0
220
0.0
230
1.0
 70
    11
 71
     3
 72
    17
 73
    13
 74
     0
 42
0.0000000001
 43
0.0000000001
 40
0.0
 40
0.0
 40
0.0
 40
0.0
 40
1.0
 40
1.0
 40
1.0
 40
2.0
 40
2.0
 40
2.0
 40
3.0
 40
3.0
 40
3.0
 40
4.0
 40
4.0
 40
4.0
 40
4.0
 10
19.20123968703997
 20
-151.2359021974341
 30
0.0
 10
19.20123968703997
 20
-151.8432725314836
 30
0.0
 10
18.70893554219777
 20
-152.3359211858744
 30
0.0
 10
18.1012206985997
 20
-152.3359211858744
 30
0.0
 10
17.49333360022736
 20
-152.3359211858744
 30
0.0
 10
17.00120171015942
 20
-151.8432725314836
 30
0.0
 10
17.00120171015942
 20
-151.2359021974341
 30
0.0
 10
17.00120171015942
 20
-150.628187353836
 30
0.0
 10
17.49333360022736
 20
-150.1358832089938
 30
0.0
 10
18.1012206985997
 20
-150.1358832089938
 30
0.0
 10
18.70893554219777
 20
-150.1358832089938
 30
0.0
 10
19.20123968703997
 20
-150.628187353836
 30
0.0
 10
19.20123968703997
 20
-151.2359021974341
 30
0.0
  0
SPLINE
  5
3E
330
1F
100
AcDbEntity
  8
Ebene 1
 62
   250
420
  1907995
370
    18
100
AcDbSpline
210
0.0
220
0.0
230
1.0
 70
    11
 71
     3
 72
    17
 73
    13
 74
     0
 42
0.0000000001
 43
0.0000000001
 40
0.0
 40
0.0
 40
0.0
 40
0.0
 40
1.0
 40
1.0
 40
1.0
 40
2.0
 40
2.0
 40
2.0
 40
3.0
 40
3.0
 40
3.0
 40
4.0
 40
4.0
 40
4.0
 40
4.0
 10
23.01134303895203
 20
-151.2355576878856
 30
0.0
 10
23.01134303895203
 20
-151.8425835123866
 30
0.0
 10
22.51903889410983
 20
-152.3355766763258
 30
0.0
 10
21.91132405051175
 20
-152.3355766763258
 30
0.0
 10
21.30343695213942
 20
-152.3355766763258
 30
0.0
 10
20.81130506207148
 20
-151.8425835123866
 30
0.0
 10
20.81130506207148
 20
-151.2355576878856
 30
0.0
 10
20.81130506207148
 20
-150.6278428442875
 30
0.0
 10
21.30343695213942
 20
-150.1355386994453
 30
0.0
 10
21.91132405051175
 20
-150.1355386994453
 30
0.0
 10
22.51903889410983
 20
-150.1355386994453
 30
0.0
 10
23.01134303895203
 20
-150.6278428442875
 30
0.0
 10
23.01134303895203
 20
-151.2355576878856
 30
0.0
  0
SPLINE
  5
3F
330
1F
100
AcDbEntity
  8
Ebene 1
 62
   250
420
  1907995
370
    18
100
AcDbSpline
210
0.0
220
0.0
230
1.0
 70
    11
 71
     3
 72
    17
 73
    13
 74
     0
 42
0.0000000001
 43
0.0000000001
 40
0.0
 40
0.0
 40
0.0
 40
0.0
 40
1.0
 40
1.0
 40
1.0
 40
2.0
 40
2.0
 40
2.0
 40
3.0
 40
3.0
 40
3.0
 40
4.0
 40
4.0
 40
4.0
 40
4.0
 10
26.82179090041261
 20
-151.2359021974341
 30
0.0
 10
26.82179090041261
 20
-151.8432725314836
 30
0.0
 10
26.32948675557041
 20
-152.3359211858744
 30
0.0
 10
25.72177191197234
 20
-152.3359211858744
 30
0.0
 10
25.1138848136
 20
-152.3359211858744
 30
0.0
 10
24.62175292353206
 20
-151.8432725314836
 30
0.0
 10
24.62175292353206
 20
-151.2359021974341
 30
0.0
 10
24.62175292353206
 20
-150.628187353836
 30
0.0
 10
25.1138848136
 20
-150.1358832089938
 30
0.0
 10
25.72177191197234
 20
-150.1358832089938
 30
0.0
 10
26.32948675557041
 20
-150.1358832089938
 30
0.0
 10
26.82179090041261
 20
-150.628187353836
 30
0.0
 10
26.82179090041261
 20
-151.2359021974341
 30
0.0
  0
SPLINE
  5
40
330
1F
100
AcDbEntity
  8
Ebene 1
 62
   250
420
  1907995
370
    18
100
AcDbSpline
210
0.0
220
0.0
230
1.0
 70
    11
 71
     3
 72
    17
 73
    13
 74
     0
 42
0.0000000001
 43
0.0000000001
 40
0.0
 40
0.0
 40
0.0
 40
0.0
 40
1.0
 40
1.0
 40
1.0
 40
2.0
 40
2.0
 40
2.0
 40
3.0
 40
3.0
 40
3.0
 40
4.0
 40
4.0
 40
4.0
 40
4.0
 10
30.63137748800188
 20
-151.2355576878856
 30
0.0
 10
30.63137748800188
 20
-151.8425835123866
 30
0.0
 10
30.13907334315968
 20
-152.3355766763258
 30
0.0
 10
29.53135849956161
 20
-152.3355766763258
 30
0.0
 10
28.92347140118927
 20
-152.3355766763258
 30
0.0
 10
28.43133951112133
 20
-151.8425835123866
 30
0.0
 10
28.43133951112133
 20
-151.2355576878856
 30
0.0
 10
28.43133951112133
 20
-150.6278428442875
 30
0.0
 10
28.92347140118927
 20
-150.1355386994453
 30
0.0
 10
29.53135849956161
 20
-150.1355386994453
 30
0.0
 10
30.13907334315968
 20
-150.1355386994453
 30
0.0
 10
30.63137748800188
 20
-150.6278428442875
 30
0.0
 10
30.63137748800188
 20
-151.2355576878856
 30
0.0
  0
SPLINE
  5
41
330
1F
100
AcDbEntity
  8
Ebene 1
 62
   250
420
  1907995
370
    18
100
AcDbSpline
210
0.0
220
0.0
230
1.0
 70
    11
 71
     3
 72
    17
 73
    13
 74
     0
 42
0.0000000001
 43
0.0000000001
 40
0.0
 40
0.0
 40
0.0
 40
0.0
 40
1.0
 40
1.0
 40
1.0
 40
2.0
 40
2.0
 40
2.0
 40
3.0
 40
3.0
 40
3.0
 40
4.0
 40
4.0
 40
4.0
 40
4.0
 10
34.4416530946882
 20
-151.2355576878856
 30
0.0
 10
34.4416530946882
 20
-151.8425835123866
 30
0.0
 10
33.949348949846
 20
-152.3355766763258
 30
0.0
 10
33.34163410624792
 20
-152.3355766763258
 30
0.0
 10
32.73374700787559
 20
-152.3355766763258
 30
0.0
 10
32.24161511780765
 20
-151.8425835123866
 30
0.0
 10
32.24161511780765
 20
-151.2355576878856
 30
0.0
 10
32.24161511780765
 20
-150.6278428442875
 30
0.0
 10
32.73374700787559
 20
-150.1355386994453
 30
0.0
 10
33.34163410624792
 20
-150.1355386994453
 30
0.0
 10
33.949348949846
 20
-150.1355386994453
 30
0.0
 10
34.4416530946882
 20
-150.6278428442875
 30
0.0
 10
34.4416530946882
 20
-151.2355576878856
 30
0.0
  0
SPLINE
  5
42
330
1F
100
AcDbEntity
  8
Ebene 1
 62
   250
420
  1907995
370
    18
100
AcDbSpline
210
0.0
220
0.0
230
1.0
 70
    11
 71
     3
 72
    17
 73
    13
 74
     0
 42
0.0000000001
 43
0.0000000001
 40
0.0
 40
0.0
 40
0.0
 40
0.0
 40
1.0
 40
1.0
 40
1.0
 40
2.0
 40
2.0
 40
2.0
 40
3.0
 40
3.0
 40
3.0
 40
4.0
 40
4.0
 40
4.0
 40
4.0
 10
34.44130858513967
 20
-155.0458332945719
 30
0.0
 10
34.44130858513967
 20
-155.6528591190729
 30
0.0
 10
33.94900444029747
 20
-156.1458522830121
 30
0.0
 10
33.3412895966994
 20
-156.1458522830121
 30
0.0
 10
32.73340249832707
 20
-156.1458522830121
 30
0.0
 10
32.24127060825913
 20
-155.6528591190729
 30
0.0
 10
32.24127060825913
 20
-155.0458332945719
 30
0.0
 10
32.24127060825913
 20
-154.4381184509738
 30
0.0
 10
32.73340249832707
 20
-153.9458143061316
 30
0.0
 10
33.3412895966994
 20
-153.9458143061316
 30
0.0
 10
33.94900444029747
 20
-153.9458143061316
 30
0.0
 10
34.44130858513967
 20
-154.4381184509738
 30
0.0
 10
34.44130858513967
 20
-155.0458332945719
 30
0.0
  0
SPLINE
  5
43
330
1F
100
AcDbEntity
  8
Ebene 1
 62
   250
420
  1907995
370
    18
100
AcDbSpline
210
0.0
220
0.0
230
1.0
 70
    11
 71
     3
 72
    17
 73
    13
 74
     0
 42
0.0000000001
 43
0.0000000001
 40
0.0
 40
0.0
 40
0.0
 40
0.0
 40
1.0
 40
1.0
 40
1.0
 40
2.0
 40
2.0
 40
2.0
 40
3.0
 40
3.0
 40
3.0
 40
4.0
 40
4.0
 40
4.0
 40
4.0
 10
30.63137748800188
 20
-155.0458332945719
 30
0.0
 10
30.63137748800188
 20
-155.6528591190729
 30
0.0
 10
30.13907334315968
 20
-156.1458522830121
 30
0.0
 10
29.53135849956161
 20
-156.1458522830121
 30
0.0
 10
28.92347140118927
 20
-156.1458522830121
 30
0.0
 10
28.43133951112133
 20
-155.6528591190729
 30
0.0
 10
28.43133951112133
 20
-155.0458332945719
 30
0.0
 10
28.43133951112133
 20
-154.4381184509738
 30
0.0
 10
28.92347140118927
 20
-153.9458143061316
 30
0.0
 10
29.53135849956161
 20
-153.9458143061316
 30
0.0
 10
30.13907334315968
 20
-153.9458143061316
 30
0.0
 10
30.63137748800188
 20
-154.4381184509738
 30
0.0
 10
30.63137748800188
 20
-155.0458332945719
 30
0.0
  0
SPLINE
  5
44
330
1F
100
AcDbEntity
  8
Ebene 1
 62
   250
420
  1907995
370
    18
100
AcDbSpline
210
0.0
220
0.0
230
1.0
 70
    11
 71
     3
 72
    17
 73
    13
 74
     0
 42
0.0000000001
 43
0.0000000001
 40
0.0
 40
0.0
 40
0.0
 40
0.0
 40
1.0
 40
1.0
 40
1.0
 40
2.0
 40
2.0
 40
2.0
 40
3.0
 40
3.0
 40
3.0
 40
4.0
 40
4.0
 40
4.0
 40
4.0
 10
26.82110188131556
 20
-155.0458332945719
 30
0.0
 10
26.82110188131556
 20
-155.6528591190729
 30
0.0
 10
26.32879773647336
 20
-156.1458522830121
 30
0.0
 10
25.72108289287529
 20
-156.1458522830121
 30
0.0
 10
25.11319579450295
 20
-156.1458522830121
 30
0.0
 10
24.62106390443501
 20
-155.6528591190729
 30
0.0
 10
24.62106390443501
 20
-155.0458332945719
 30
0.0
 10
24.62106390443501
 20
-154.4381184509738
 30
0.0
 10
25.11319579450295
 20
-153.9458143061316
 30
0.0
 10
25.72108289287529
 20
-153.9458143061316
 30
0.0
 10
26.32879773647336
 20
-153.9458143061316
 30
0.0
 10
26.82110188131556
 20
-154.4381184509738
 30
0.0
 10
26.82110188131556
 20
-155.0458332945719
 30
0.0
  0
SPLINE
  5
45
330
1F
100
AcDbEntity
  8
Ebene 1
 62
   250
420
  1907995
370
    18
100
AcDbSpline
210
0.0
220
0.0
230
1.0
 70
    11
 71
     3
 72
    17
 73
    13
 74
     0
 42
0.0000000001
 43
0.0000000001
 40
0.0
 40
0.0
 40
0.0
 40
0.0
 40
1.0
 40
1.0
 40
1.0
 40
2.0
 40
2.0
 40
2.0
 40
3.0
 40
3.0
 40
3.0
 40
4.0
 40
4.0
 40
4.0
 40
4.0
 10
23.01151529372629
 20
-155.0458332945719
 30
0.0
 10
23.01151529372629
 20
-155.6528591190729
 30
0.0
 10
22.51921114888409
 20
-156.1458522830121
 30
0.0
 10
21.91149630528601
 20
-156.1458522830121
 30
0.0
 10
21.30360920691368
 20
-156.1458522830121
 30
0.0
 10
20.81147731684574
 20
-155.6528591190729
 30
0.0
 10
20.81147731684574
 20
-155.0458332945719
 30
0.0
 10
20.81147731684574
 20
-154.4381184509738
 30
0.0
 10
21.30360920691368
 20
-153.9458143061316
 30
0.0
 10
21.91149630528601
 20
-153.9458143061316
 30
0.0
 10
22.51921114888409
 20
-153.9458143061316
 30
0.0
 10
23.01151529372629
 20
-154.4381184509738
 30
0.0
 10
23.01151529372629
 20
-155.0458332945719
 30
0.0
  0
SPLINE
  5
46
330
1F
100
AcDbEntity
  8
Ebene 1
 62
   250
420
  1907995
370
    18
100
AcDbSpline
210
0.0
220
0.0
230
1.0
 70
    11
 71
     3
 72
    17
 73
    13
 74
     0
 42
0.0000000001
 43
0.0000000001
 40
0.0
 40
0.0
 40
0.0
 40
0.0
 40
1.0
 40
1.0
 40
1.0
 40
2.0
 40
2.0
 40
2.0
 40
3.0
 40
3.0
 40
3.0
 40
4.0
 40
4.0
 40
4.0
 40
4.0
 10
23.01134303895203
 20
-158.8557643917097
 30
0.0
 10
23.01134303895203
 20
-159.4631347257592
 30
0.0
 10
22.51903889410983
 20
-159.9557833801499
 30
0.0
 10
21.91132405051175
 20
-159.9557833801499
 30
0.0
 10
21.30343695213942
 20
-159.9557833801499
 30
0.0
 10
20.81130506207148
 20
-159.4631347257592
 30
0.0
 10
20.81130506207148
 20
-158.8557643917097
 30
0.0
 10
20.81130506207148
 20
-158.2480495481116
 30
0.0
 10
21.30343695213942
 20
-157.7557454032694
 30
0.0
 10
21.91132405051175
 20
-157.7557454032694
 30
0.0
 10
22.51903889410983
 20
-157.7557454032694
 30
0.0
 10
23.01134303895203
 20
-158.2480495481116
 30
0.0
 10
23.01134303895203
 20
-158.8557643917097
 30
0.0
  0
SPLINE
  5
47
330
1F
100
AcDbEntity
  8
Ebene 1
 62
   250
420
  1907995
370
    18
100
AcDbSpline
210
0.0
220
0.0
230
1.0
 70
    11
 71
     3
 72
    17
 73
    13
 74
     0
 42
0.0000000001
 43
0.0000000001
 40
0.0
 40
0.0
 40
0.0
 40
0.0
 40
1.0
 40
1.0
 40
1.0
 40
2.0
 40
2.0
 40
2.0
 40
3.0
 40
3.0
 40
3.0
 40
4.0
 40
4.0
 40
4.0
 40
4.0
 10
26.82110188131556
 20
-158.8554198821612
 30
0.0
 10
26.82110188131556
 20
-159.4624457066622
 30
0.0
 10
26.32879773647336
 20
-159.9554388706014
 30
0.0
 10
25.72108289287529
 20
-159.9554388706014
 30
0.0
 10
25.11319579450295
 20
-159.9554388706014
 30
0.0
 10
24.62106390443501
 20
-159.4624457066622
 30
0.0
 10
24.62106390443501
 20
-158.8554198821612
 30
0.0
 10
24.62106390443501
 20
-158.2477050385631
 30
0.0
 10
25.11319579450295
 20
-157.7554008937209
 30
0.0
 10
25.72108289287529
 20
-157.7554008937209
 30
0.0
 10
26.32879773647336
 20
-157.7554008937209
 30
0.0
 10
26.82110188131556
 20
-158.2477050385631
 30
0.0
 10
26.82110188131556
 20
-158.8554198821612
 30
0.0
  0
SPLINE
  5
48
330
1F
100
AcDbEntity
  8
Ebene 1
 62
   250
420
  1907995
370
    18
100
AcDbSpline
210
0.0
220
0.0
230
1.0
 70
    11
 71
     3
 72
    17
 73
    13
 74
     0
 42
0.0000000001
 43
0.0000000001
 40
0.0
 40
0.0
 40
0.0
 40
0.0
 40
1.0
 40
1.0
 40
1.0
 40
2.0
 40
2.0
 40
2.0
 40
3.0
 40
3.0
 40
3.0
 40
4.0
 40
4.0
 40
4.0
 40
4.0
 10
30.63137748800188
 20
-158.8557643917097
 30
0.0
 10
30.63137748800188
 20
-159.4631347257592
 30
0.0
 10
30.13907334315968
 20
-159.9557833801499
 30
0.0
 10
29.53135849956161
 20
-159.9557833801499
 30
0.0
 10
28.92347140118927
 20
-159.9557833801499
 30
0.0
 10
28.43133951112133
 20
-159.4631347257592
 30
0.0
 10
28.43133951112133
 20
-158.8557643917097
 30
0.0
 10
28.43133951112133
 20
-158.2480495481116
 30
0.0
 10
28.92347140118927
 20
-157.7557454032694
 30
0.0
 10
29.53135849956161
 20
-157.7557454032694
 30
0.0
 10
30.13907334315968
 20
-157.7557454032694
 30
0.0
 10
30.63137748800188
 20
-158.2480495481116
 30
0.0
 10
30.63137748800188
 20
-158.8557643917097
 30
0.0
  0
SPLINE
  5
49
330
1F
100
AcDbEntity
  8
Ebene 1
 62
   250
420
  1907995
370
    18
100
AcDbSpline
210
0.0
220
0.0
230
1.0
 70
    11
 71
     3
 72
    17
 73
    13
 74
     0
 42
0.0000000001
 43
0.0000000001
 40
0.0
 40
0.0
 40
0.0
 40
0.0
 40
1.0
 40
1.0
 40
1.0
 40
2.0
 40
2.0
 40
2.0
 40
3.0
 40
3.0
 40
3.0
 40
4.0
 40
4.0
 40
4.0
 40
4.0
 10
34.44130858513967
 20
-158.8554198821612
 30
0.0
 10
34.44130858513967
 20
-159.4624457066622
 30
0.0
 10
33.94900444029747
 20
-159.9554388706014
 30
0.0
 10
33.3412895966994
 20
-159.9554388706014
 30
0.0
 10
32.73340249832707
 20
-159.9554388706014
 30
0.0
 10
32.24127060825913
 20
-159.4624457066622
 30
0.0
 10
32.24127060825913
 20
-158.8554198821612
 30
0.0
 10
32.24127060825913
 20
-158.2477050385631
 30
0.0
 10
32.73340249832707
 20
-157.7554008937209
 30
0.0
 10
33.3412895966994
 20
-157.7554008937209
 30
0.0
 10
33.94900444029747
 20
-157.7554008937209
 30
0.0
 10
34.44130858513967
 20
-158.2477050385631
 30
0.0
 10
34.44130858513967
 20
-158.8554198821612
 30
0.0
  0
SPLINE
  5
4A
330
1F
100
AcDbEntity
  8
Ebene 1
 62
   250
420
  1907995
370
    18
100
AcDbSpline
210
0.0
220
0.0
230
1.0
 70
    11
 71
     3
 72
    17
 73
    13
 74
     0
 42
0.0000000001
 43
0.0000000001
 40
0.0
 40
0.0
 40
0.0
 40
0.0
 40
1.0
 40
1.0
 40
1.0
 40
2.0
 40
2.0
 40
2.0
 40
3.0
 40
3.0
 40
3.0
 40
4.0
 40
4.0
 40
4.0
 40
4.0
 10
34.4416530946882
 20
-162.6663845079445
 30
0.0
 10
34.4416530946882
 20
-163.2734103324455
 30
0.0
 10
33.949348949846
 20
-163.7660589868363
 30
0.0
 10
33.34163410624792
 20
-163.7660589868363
 30
0.0
 10
32.73374700787559
 20
-163.7660589868363
 30
0.0
 10
32.24161511780765
 20
-163.2734103324455
 30
0.0
 10
32.24161511780765
 20
-162.6663845079445
 30
0.0
 10
32.24161511780765
 20
-162.0586696643464
 30
0.0
 10
32.73374700787559
 20
-161.5660210099557
 30
0.0
 10
33.34163410624792
 20
-161.5660210099557
 30
0.0
 10
33.949348949846
 20
-161.5660210099557
 30
0.0
 10
34.4416530946882
 20
-162.0586696643464
 30
0.0
 10
34.4416530946882
 20
-162.6663845079445
 30
0.0
  0
SPLINE
  5
4B
330
1F
100
AcDbEntity
  8
Ebene 1
 62
   250
420
  1907995
370
    18
100
AcDbSpline
210
0.0
220
0.0
230
1.0
 70
    11
 71
     3
 72
    17
 73
    13
 74
     0
 42
0.0000000001
 43
0.0000000001
 40
0.0
 40
0.0
 40
0.0
 40
0.0
 40
1.0
 40
1.0
 40
1.0
 40
2.0
 40
2.0
 40
2.0
 40
3.0
 40
3.0
 40
3.0
 40
4.0
 40
4.0
 40
4.0
 40
4.0
 10
30.63137748800188
 20
-162.6663845079445
 30
0.0
 10
30.63137748800188
 20
-163.2734103324455
 30
0.0
 10
30.13907334315968
 20
-163.7660589868363
 30
0.0
 10
29.53135849956161
 20
-163.7660589868363
 30
0.0
 10
28.92347140118927
 20
-163.7660589868363
 30
0.0
 10
28.43133951112133
 20
-163.2734103324455
 30
0.0
 10
28.43133951112133
 20
-162.6663845079445
 30
0.0
 10
28.43133951112133
 20
-162.0586696643464
 30
0.0
 10
28.92347140118927
 20
-161.5660210099557
 30
0.0
 10
29.53135849956161
 20
-161.5660210099557
 30
0.0
 10
30.13907334315968
 20
-161.5660210099557
 30
0.0
 10
30.63137748800188
 20
-162.0586696643464
 30
0.0
 10
30.63137748800188
 20
-162.6663845079445
 30
0.0
  0
SPLINE
  5
4C
330
1F
100
AcDbEntity
  8
Ebene 1
 62
   250
420
  1907995
370
    18
100
AcDbSpline
210
0.0
220
0.0
230
1.0
 70
    11
 71
     3
 72
    17
 73
    13
 74
     0
 42
0.0000000001
 43
0.0000000001
 40
0.0
 40
0.0
 40
0.0
 40
0.0
 40
1.0
 40
1.0
 40
1.0
 40
2.0
 40
2.0
 40
2.0
 40
3.0
 40
3.0
 40
3.0
 40
4.0
 40
4.0
 40
4.0
 40
4.0
 10
26.82110188131556
 20
-162.6663845079445
 30
0.0
 10
26.82110188131556
 20
-163.2734103324455
 30
0.0
 10
26.32879773647336
 20
-163.7660589868363
 30
0.0
 10
25.72108289287529
 20
-163.7660589868363
 30
0.0
 10
25.11319579450295
 20
-163.7660589868363
 30
0.0
 10
24.62106390443501
 20
-163.2734103324455
 30
0.0
 10
24.62106390443501
 20
-162.6663845079445
 30
0.0
 10
24.62106390443501
 20
-162.0586696643464
 30
0.0
 10
25.11319579450295
 20
-161.5660210099557
 30
0.0
 10
25.72108289287529
 20
-161.5660210099557
 30
0.0
 10
26.32879773647336
 20
-161.5660210099557
 30
0.0
 10
26.82110188131556
 20
-162.0586696643464
 30
0.0
 10
26.82110188131556
 20
-162.6663845079445
 30
0.0
  0
SPLINE
  5
4D
330
1F
100
AcDbEntity
  8
Ebene 1
 62
   250
420
  1907995
370
    18
100
AcDbSpline
210
0.0
220
0.0
230
1.0
 70
    11
 71
     3
 72
    17
 73
    13
 74
     0
 42
0.0000000001
 43
0.0000000001
 40
0.0
 40
0.0
 40
0.0
 40
0.0
 40
1.0
 40
1.0
 40
1.0
 40
2.0
 40
2.0
 40
2.0
 40
3.0
 40
3.0
 40
3.0
 40
4.0
 40
4.0
 40
4.0
 40
4.0
 10
23.01134303895203
 20
-162.6663845079445
 30
0.0
 10
23.01134303895203
 20
-163.2734103324455
 30
0.0
 10
22.51903889410983
 20
-163.7660589868363
 30
0.0
 10
21.91132405051175
 20
-163.7660589868363
 30
0.0
 10
21.30343695213942
 20
-163.7660589868363
 30
0.0
 10
20.81130506207148
 20
-163.2734103324455
 30
0.0
 10
20.81130506207148
 20
-162.6663845079445
 30
0.0
 10
20.81130506207148
 20
-162.0586696643464
 30
0.0
 10
21.30343695213942
 20
-161.5660210099557
 30
0.0
 10
21.91132405051175
 20
-161.5660210099557
 30
0.0
 10
22.51903889410983
 20
-161.5660210099557
 30
0.0
 10
23.01134303895203
 20
-162.0586696643464
 30
0.0
 10
23.01134303895203
 20
-162.6663845079445
 30
0.0
  0
SPLINE
  5
4E
330
1F
100
AcDbEntity
  8
Ebene 1
 62
   250
420
  1907995
370
    18
100
AcDbSpline
210
0.0
220
0.0
230
1.0
 70
    11
 71
     3
 72
    17
 73
    13
 74
     0
 42
0.0000000001
 43
0.0000000001
 40
0.0
 40
0.0
 40
0.0
 40
0.0
 40
1.0
 40
1.0
 40
1.0
 40
2.0
 40
2.0
 40
2.0
 40
3.0
 40
3.0
 40
3.0
 40
4.0
 40
4.0
 40
4.0
 40
4.0
 10
19.20106743226571
 20
-155.0458332945719
 30
0.0
 10
19.20106743226571
 20
-155.6528591190729
 30
0.0
 10
18.7087632874235
 20
-156.1458522830121
 30
0.0
 10
18.10104844382543
 20
-156.1458522830121
 30
0.0
 10
17.4931613454531
 20
-156.1458522830121
 30
0.0
 10
17.00102945538516
 20
-155.6528591190729
 30
0.0
 10
17.00102945538516
 20
-155.0458332945719
 30
0.0
 10
17.00102945538516
 20
-154.4381184509738
 30
0.0
 10
17.4931613454531
 20
-153.9458143061316
 30
0.0
 10
18.10104844382543
 20
-153.9458143061316
 30
0.0
 10
18.7087632874235
 20
-153.9458143061316
 30
0.0
 10
19.20106743226571
 20
-154.4381184509738
 30
0.0
 10
19.20106743226571
 20
-155.0458332945719
 30
0.0
  0
SPLINE
  5
4F
330
1F
100
AcDbEntity
  8
Ebene 1
 62
   250
420
  1907995
370
    18
100
AcDbSpline
210
0.0
220
0.0
230
1.0
 70
    11
 71
     3
 72
    17
 73
    13
 74
     0
 42
0.0000000001
 43
0.0000000001
 40
0.0
 40
0.0
 40
0.0
 40
0.0
 40
1.0
 40
1.0
 40
1.0
 40
2.0
 40
2.0
 40
2.0
 40
3.0
 40
3.0
 40
3.0
 40
4.0
 40
4.0
 40
4.0
 40
4.0
 10
19.20123968703997
 20
-158.8557643917097
 30
0.0
 10
19.20123968703997
 20
-159.4631347257592
 30
0.0
 10
18.70893554219777
 20
-159.9557833801499
 30
0.0
 10
18.1012206985997
 20
-159.9557833801499
 30
0.0
 10
17.49333360022736
 20
-159.9557833801499
 30
0.0
 10
17.00120171015942
 20
-159.4631347257592
 30
0.0
 10
17.00120171015942
 20
-158.8557643917097
 30
0.0
 10
17.00120171015942
 20
-158.2480495481116
 30
0.0
 10
17.49333360022736
 20
-157.7557454032694
 30
0.0
 10
18.1012206985997
 20
-157.7557454032694
 30
0.0
 10
18.70893554219777
 20
-157.7557454032694
 30
0.0
 10
19.20123968703997
 20
-158.2480495481116
 30
0.0
 10
19.20123968703997
 20
-158.8557643917097
 30
0.0
  0
SPLINE
  5
50
330
1F
100
AcDbEntity
  8
Ebene 1
 62
   250
420
  1907995
370
    18
100
AcDbSpline
210
0.0
220
0.0
230
1.0
 70
    11
 71
     3
 72
    17
 73
    13
 74
     0
 42
0.0000000001
 43
0.0000000001
 40
0.0
 40
0.0
 40
0.0
 40
0.0
 40
1.0
 40
1.0
 40
1.0
 40
2.0
 40
2.0
 40
2.0
 40
3.0
 40
3.0
 40
3.0
 40
4.0
 40
4.0
 40
4.0
 40
4.0
 10
19.20106743226571
 20
-162.6656954888475
 30
0.0
 10
19.20106743226571
 20
-163.2734103324455
 30
0.0
 10
18.7087632874235
 20
-163.7660589868363
 30
0.0
 10
18.10104844382543
 20
-163.7660589868363
 30
0.0
 10
17.4931613454531
 20
-163.7660589868363
 30
0.0
 10
17.00102945538516
 20
-163.2734103324455
 30
0.0
 10
17.00102945538516
 20
-162.6656954888475
 30
0.0
 10
17.00102945538516
 20
-162.0579806452494
 30
0.0
 10
17.4931613454531
 20
-161.5660210099557
 30
0.0
 10
18.10104844382543
 20
-161.5660210099557
 30
0.0
 10
18.7087632874235
 20
-161.5660210099557
 30
0.0
 10
19.20106743226571
 20
-162.0579806452494
 30
0.0
 10
19.20106743226571
 20
-162.6656954888475
 30
0.0
  0
SPLINE
  5
51
330
1F
100
AcDbEntity
  8
Ebene 1
 62
   250
420
  1907995
370
    18
100
AcDbSpline
210
0.0
220
0.0
230
1.0
 70
    11
 71
     3
 72
    17
 73
    13
 74
     0
 42
0.0000000001
 43
0.0000000001
 40
0.0
 40
0.0
 40
0.0
 40
0.0
 40
1.0
 40
1.0
 40
1.0
 40
2.0
 40
2.0
 40
2.0
 40
3.0
 40
3.0
 40
3.0
 40
4.0
 40
4.0
 40
4.0
 40
4.0
 10
23.01151529372629
 20
-147.4259711002963
 30
0.0
 10
23.01151529372629
 20
-148.0329969247973
 30
0.0
 10
22.51921114888409
 20
-148.5256455791881
 30
0.0
 10
21.91115179573749
 20
-148.5256455791881
 30
0.0
 10
21.30378146168794
 20
-148.5256455791881
 30
0.0
 10
20.81147731684574
 20
-148.0329969247973
 30
0.0
 10
20.81147731684574
 20
-147.4259711002963
 30
0.0
 10
20.81147731684574
 20
-146.8182562566982
 30
0.0
 10
21.30378146168794
 20
-146.325952111856
 30
0.0
 10
21.91115179573749
 20
-146.325952111856
 30
0.0
 10
22.51921114888409
 20
-146.325952111856
 30
0.0
 10
23.01151529372629
 20
-146.8182562566982
 30
0.0
 10
23.01151529372629
 20
-147.4259711002963
 30
0.0
  0
SPLINE
  5
52
330
1F
100
AcDbEntity
  8
Ebene 1
 62
   250
420
  1907995
370
    18
100
AcDbSpline
210
0.0
220
0.0
230
1.0
 70
    11
 71
     3
 72
    17
 73
    13
 74
     0
 42
0.0000000001
 43
0.0000000001
 40
0.0
 40
0.0
 40
0.0
 40
0.0
 40
1.0
 40
1.0
 40
1.0
 40
2.0
 40
2.0
 40
2.0
 40
3.0
 40
3.0
 40
3.0
 40
4.0
 40
4.0
 40
4.0
 40
4.0
 10
26.82110188131556
 20
-147.4256265907478
 30
0.0
 10
26.82110188131556
 20
-148.0329969247973
 30
0.0
 10
26.32879773647336
 20
-148.5256455791881
 30
0.0
 10
25.72073838332676
 20
-148.5256455791881
 30
0.0
 10
25.11336804927722
 20
-148.5256455791881
 30
0.0
 10
24.62106390443501
 20
-148.0329969247973
 30
0.0
 10
24.62106390443501
 20
-147.4256265907478
 30
0.0
 10
24.62106390443501
 20
-146.8175672376012
 30
0.0
 10
25.11336804927722
 20
-146.3256076023075
 30
0.0
 10
25.72073838332676
 20
-146.3256076023075
 30
0.0
 10
26.32879773647336
 20
-146.3256076023075
 30
0.0
 10
26.82110188131556
 20
-146.8175672376012
 30
0.0
 10
26.82110188131556
 20
-147.4256265907478
 30
0.0
  0
SPLINE
  5
53
330
1F
100
AcDbEntity
  8
Ebene 1
 62
   250
420
  1907995
370
    18
100
AcDbSpline
210
0.0
220
0.0
230
1.0
 70
    11
 71
     3
 72
    17
 73
    13
 74
     0
 42
0.0000000001
 43
0.0000000001
 40
0.0
 40
0.0
 40
0.0
 40
0.0
 40
1.0
 40
1.0
 40
1.0
 40
2.0
 40
2.0
 40
2.0
 40
3.0
 40
3.0
 40
3.0
 40
4.0
 40
4.0
 40
4.0
 40
4.0
 10
30.63137748800188
 20
-147.4256265907478
 30
0.0
 10
30.63137748800188
 20
-148.0329969247973
 30
0.0
 10
30.13907334315968
 20
-148.5256455791881
 30
0.0
 10
29.53101399001308
 20
-148.5256455791881
 30
0.0
 10
28.92364365596353
 20
-148.5256455791881
 30
0.0
 10
28.43133951112133
 20
-148.0329969247973
 30
0.0
 10
28.43133951112133
 20
-147.4256265907478
 30
0.0
 10
28.43133951112133
 20
-146.8175672376012
 30
0.0
 10
28.92364365596353
 20
-146.3256076023075
 30
0.0
 10
29.53101399001308
 20
-146.3256076023075
 30
0.0
 10
30.13907334315968
 20
-146.3256076023075
 30
0.0
 10
30.63137748800188
 20
-146.8175672376012
 30
0.0
 10
30.63137748800188
 20
-147.4256265907478
 30
0.0
  0
SPLINE
  5
54
330
1F
100
AcDbEntity
  8
Ebene 1
 62
   250
420
  1907995
370
    18
100
AcDbSpline
210
0.0
220
0.0
230
1.0
 70
    11
 71
     3
 72
    17
 73
    13
 74
     0
 42
0.0000000001
 43
0.0000000001
 40
0.0
 40
0.0
 40
0.0
 40
0.0
 40
1.0
 40
1.0
 40
1.0
 40
2.0
 40
2.0
 40
2.0
 40
3.0
 40
3.0
 40
3.0
 40
4.0
 40
4.0
 40
4.0
 40
4.0
 10
34.44130858513967
 20
-147.4256265907478
 30
0.0
 10
34.44130858513967
 20
-148.0329969247973
 30
0.0
 10
33.94900444029747
 20
-148.5256455791881
 30
0.0
 10
33.34094508715088
 20
-148.5256455791881
 30
0.0
 10
32.73357475310133
 20
-148.5256455791881
 30
0.0
 10
32.24127060825913
 20
-148.0329969247973
 30
0.0
 10
32.24127060825913
 20
-147.4256265907478
 30
0.0
 10
32.24127060825913
 20
-146.8175672376012
 30
0.0
 10
32.73357475310133
 20
-146.3256076023075
 30
0.0
 10
33.34094508715088
 20
-146.3256076023075
 30
0.0
 10
33.94900444029747
 20
-146.3256076023075
 30
0.0
 10
34.44130858513967
 20
-146.8175672376012
 30
0.0
 10
34.44130858513967
 20
-147.4256265907478
 30
0.0
  0
POLYLINE
  5
55
330
1F
100
AcDbEntity
  8
Ebene 1
 62
   250
420
  1907995
370
    18
100
AcDb2dPolyline
 66
     1
 10
0.0
 20
0.0
 30
0.0
  0
VERTEX
  5
56
330
55
100
AcDbEntity
  8
Ebene 1
 62
   250
420
  1907995
370
    18
100
AcDbVertex
100
AcDb2dVertex
 10
36.72178954160081
 20
-166.0460231789746
 30
0.0
  0
VERTEX
  5
57
330
55
100
AcDbEntity
  8
Ebene 1
 62
   250
420
  1907995
370
    18
100
AcDbVertex
100
AcDb2dVertex
 10
14.72175428234387
 20
-166.0460231789746
 30
0.0
  0
VERTEX
  5
58
330
55
100
AcDbEntity
  8
Ebene 1
 62
   250
420
  1907995
370
    18
100
AcDbVertex
100
AcDb2dVertex
 10
14.72175428234387
 20
-144.0459879197177
 30
0.0
  0
VERTEX
  5
59
330
55
100
AcDbEntity
  8
Ebene 1
 62
   250
420
  1907995
370
    18
100
AcDbVertex
100
AcDb2dVertex
 10
36.72178954160081
 20
-144.0459879197177
 30
0.0
  0
VERTEX
  5
5A
330
55
100
AcDbEntity
  8
Ebene 1
 62
   250
420
  1907995
370
    18
100
AcDbVertex
100
AcDb2dVertex
 10
36.72178954160081
 20
-166.0460231789746
 30
0.0
  0
SEQEND
  5
5B
330
55
100
AcDbEntity
  8
Ebene 1
370
    18
  0
ENDSEC
  0
SECTION
  2
OBJECTS
  0
DICTIONARY
  5
C
330
0
100
AcDbDictionary
281
     1
  3
ACAD_GROUP
350
D
  3
ACAD_LAYOUT
350
1A
  3
ACAD_MLINESTYLE
350
17
  3
ACAD_PLOTSETTINGS
350
19
  3
ACAD_PLOTSTYLENAME
350
E
  3
ACAD_TABLESTYLE
350
5C
  3
ACAD_VISUALSTYLE
350
2A
  0
DICTIONARY
  5
D
102
{ACAD_REACTORS
330
C
102
}
330
C
100
AcDbDictionary
281
     1
  0
DICTIONARY
  5
1A
102
{ACAD_REACTORS
330
C
102
}
330
C
100
AcDbDictionary
281
     1
  3
Layout1
350
1E
  3
Layout2
350
26
  3
Model
350
22
  0
DICTIONARY
  5
17
102
{ACAD_REACTORS
330
C
102
}
330
C
100
AcDbDictionary
281
     1
  3
Standard
350
18
  0
DICTIONARY
  5
19
102
{ACAD_REACTORS
330
C
102
}
330
C
100
AcDbDictionary
281
     1
  0
ACDBDICTIONARYWDFLT
  5
E
102
{ACAD_REACTORS
330
C
102
}
330
C
100
AcDbDictionary
281
     1
  3
Normal
350
F
100
AcDbDictionaryWithDefault
340
F
  0
DICTIONARY
  5
5C
102
{ACAD_REACTORS
330
C
102
}
330
C
100
AcDbDictionary
281
     1
  0
DICTIONARY
  5
2A
102
{ACAD_REACTORS
330
C
102
}
330
C
100
AcDbDictionary
281
     1
  3
2dWireframe
350
2F
  3
3D Hidden
350
31
  3
3dWireframe
350
30
  3
Basic
350
32
  3
Brighten
350
36
  3
ColorChange
350
3A
  3
Conceptual
350
34
  3
Dim
350
35
  3
Facepattern
350
39
  3
Flat
350
2B
  3
FlatWithEdges
350
2C
  3
Gouraud
350
2D
  3
GouraudWithEdges
350
2E
  3
Linepattern
350
38
  3
Realistic
350
33
  3
Thicken
350
37
  0
LAYOUT
  5
1E
102
{ACAD_REACTORS
330
1A
102
}
330
1A
100
AcDbPlotSettings
  1

  2
none_device
  4

  6

 40
0.0
 41
0.0
 42
0.0
 43
0.0
 44
0.0
 45
0.0
 46
0.0
 47
0.0
 48
0.0
 49
0.0
140
0.0
141
0.0
142
1.0
143
1.0
 70
   688
 72
     0
 73
     0
 74
     5
  7

 75
    16
 76
     0
 77
     2
 78
   300
147
1.0
148
0.0
149
0.0
100
AcDbLayout
  1
Layout1
 70
     1
 71
     1
 10
0.0
 20
0.0
 11
12.0
 21
9.0
 12
0.0
 22
0.0
 32
0.0
 14
1.000000000000000E+20
 24
1.000000000000000E+20
 34
1.000000000000000E+20
 15
-1.000000000000000E+20
 25
-1.000000000000000E+20
 35
-1.000000000000000E+20
146
0.0
 13
0.0
 23
0.0
 33
0.0
 16
1.0
 26
0.0
 36
0.0
 17
0.0
 27
1.0
 37
0.0
 76
     0
330
1B
  0
LAYOUT
  5
26
102
{ACAD_REACTORS
330
1A
102
}
330
1A
100
AcDbPlotSettings
  1

  2
none_device
  4

  6

 40
0.0
 41
0.0
 42
0.0
 43
0.0
 44
0.0
 45
0.0
 46
0.0
 47
0.0
 48
0.0
 49
0.0
140
0.0
141
0.0
142
1.0
143
1.0
 70
   688
 72
     0
 73
     0
 74
     5
  7

 75
    16
 76
     0
 77
     2
 78
   300
147
1.0
148
0.0
149
0.0
100
AcDbLayout
  1
Layout2
 70
     1
 71
     2
 10
0.0
 20
0.0
 11
0.0
 21
0.0
 12
0.0
 22
0.0
 32
0.0
 14
0.0
 24
0.0
 34
0.0
 15
0.0
 25
0.0
 35
0.0
146
0.0
 13
0.0
 23
0.0
 33
0.0
 16
1.0
 26
0.0
 36
0.0
 17
0.0
 27
1.0
 37
0.0
 76
     0
330
23
  0
LAYOUT
  5
22
102
{ACAD_REACTORS
330
1A
102
}
330
1A
100
AcDbPlotSettings
  1

  2
none_device
  4

  6

 40
0.0
 41
0.0
 42
0.0
 43
0.0
 44
0.0
 45
0.0
 46
0.0
 47
0.0
 48
0.0
 49
0.0
140
0.0
141
0.0
142
1.0
143
1.0
 70
  1712
 72
     0
 73
     0
 74
     0
  7

 75
     0
 76
     0
 77
     2
 78
   300
147
1.0
148
0.0
149
0.0
100
AcDbLayout
  1
Model
 70
     1
 71
     0
 10
0.0
 20
0.0
 11
12.0
 21
9.0
 12
0.0
 22
0.0
 32
0.0
 14
1.000000000000000E+20
 24
1.000000000000000E+20
 34
1.000000000000000E+20
 15
-1.000000000000000E+20
 25
-1.000000000000000E+20
 35
-1.000000000000000E+20
146
0.0
 13
0.0
 23
0.0
 33
0.0
 16
1.0
 26
0.0
 36
0.0
 17
0.0
 27
1.0
 37
0.0
 76
     0
330
1F
331
29
  0
MLINESTYLE
  5
18
102
{ACAD_REACTORS
330
17
102
}
330
17
100
AcDbMlineStyle
  2
Standard
 70
     0
  3

 62
   256
 51
90.0
 52
90.0
 71
     2
 49
0.5
 62
   256
  6
BYLAYER
 49
-0.5
 62
   256
  6
BYLAYER
  0
ACDBPLACEHOLDER
  5
F
102
{ACAD_REACTORS
330
E
102
}
330
E
  0
VISUALSTYLE
  5
2F
102
{ACAD_REACTORS
330
2A
102
}
330
2A
100
AcDbVisualStyle
  2
2dWireframe
 70
     4
 71
     0
 72
     2
 73
     0
 90
        0
 40
-0.6
 41
-30.0
 62
     5
 63
     7
421
 16777215
 74
     1
 91
        4
 64
     7
 65
   257
 75
     1
175
     1
 42
1.0
 92
        0
 66
   257
 43
1.0
 76
     1
 77
     6
 78
     2
 67
     7
 79
     5
170
     0
171
     0
290
     0
174
     0
 93
        1
 44
0.0
173
     0
291
     0
 45
0.0
1001
ACAD
1000
AcDbSavedByObjectVersion
1070
     0
  0
VISUALSTYLE
  5
31
102
{ACAD_REACTORS
330
2A
102
}
330
2A
100
AcDbVisualStyle
  2
3D Hidden
 70
     6
 71
     1
 72
     2
 73
     2
 90
        0
 40
-0.6
 41
-30.0
 62
     5
 63
     7
421
 16777215
 74
     2
 91
        2
 64
     7
 65
   257
 75
     2
175
     1
 42
40.0
 92
        0
 66
   257
 43
1.0
 76
     1
 77
     6
 78
     2
 67
     7
 79
     3
170
     0
171
     0
290
     0
174
     0
 93
        1
 44
0.0
173
     0
291
     0
 45
0.0
1001
ACAD
1000
AcDbSavedByObjectVersion
1070
     0
  0
VISUALSTYLE
  5
30
102
{ACAD_REACTORS
330
2A
102
}
330
2A
100
AcDbVisualStyle
  2
3dWireframe
 70
     5
 71
     0
 72
     2
 73
     0
 90
        0
 40
-0.6
 41
-30.0
 62
     5
 63
     7
421
 16777215
 74
     1
 91
        4
 64
     7
 65
   257
 75
     1
175
     1
 42
1.0
 92
        0
 66
   257
 43
1.0
 76
     1
 77
     6
 78
     2
 67
     7
 79
     5
170
     0
171
     0
290
     0
174
     0
 93
        1
 44
0.0
173
     0
291
     0
 45
0.0
1001
ACAD
1000
AcDbSavedByObjectVersion
1070
     0
  0
VISUALSTYLE
  5
32
102
{ACAD_REACTORS
330
2A
102
}
330
2A
100
AcDbVisualStyle
  2
Basic
 70
     7
 71
     1
 72
     0
 73
     1
 90
        0
 40
-0.6
 41
-30.0
 62
     5
 63
     7
421
 16777215
 74
     0
 91
        4
 64
     7
 65
   257
 75
     1
175
     1
 42
1.0
 92
        8
 66
     7
 43
1.0
 76
     1
 77
     6
 78
     2
 67
     7
 79
     5
170
     0
171
     0
290
     0
174
     0
 93
        1
 44
0.0
173
     0
291
     1
 45
0.0
1001
ACAD
1000
AcDbSavedByObjectVersion
1070
     0
  0
VISUALSTYLE
  5
36
102
{ACAD_REACTORS
330
2A
102
}
330
2A
100
AcDbVisualStyle
  2
Brighten
 70
    12
 71
     2
 72
     2
 73
     0
 90
        0
 40
-0.6
 41
-30.0
 62
     5
 63
     7
421
 16777215
 74
     1
 91
        4
 64
     7
 65
   257
 75
     1
175
     1
 42
1.0
 92
        8
 66
     7
 43
1.0
 76
     1
 77
     6
 78
     2
 67
     7
 79
     5
170
     0
171
     0
290
     0
174
     0
 93
        1
 44
50.0
173
     0
291
     1
 45
0.0
1001
ACAD
1000
AcDbSavedByObjectVersion
1070
     0
  0
VISUALSTYLE
  5
3A
102
{ACAD_REACTORS
330
2A
102
}
330
2A
100
AcDbVisualStyle
  2
ColorChange
 70
    16
 71
     2
 72
     2
 73
     3
 90
        0
 40
-0.6
 41
-30.0
 62
     5
 63
     8
421
  8421504
 74
     1
 91
        4
 64
     7
 65
   257
 75
     1
175
     1
 42
1.0
 92
        8
 66
     8
424
  8421504
 43
1.0
 76
     1
 77
     6
 78
     2
 67
     7
 79
     5
170
     0
171
     0
290
     0
174
     0
 93
        1
 44
0.0
173
     0
291
     1
 45
0.0
1001
ACAD
1000
AcDbSavedByObjectVersion
1070
     0
  0
VISUALSTYLE
  5
34
102
{ACAD_REACTORS
330
2A
102
}
330
2A
100
AcDbVisualStyle
  2
Conceptual
 70
     9
 71
     3
 72
     2
 73
     0
 90
        0
 40
-0.6
 41
-30.0
 62
     5
 63
     7
421
 16777215
 74
     2
 91
        2
 64
     7
 65
   257
 75
     1
175
     1
 42
40.0
 92
        8
 66
     7
 43
1.0
 76
     1
 77
     6
 78
     2
 67
     7
 79
     3
170
     0
171
     0
290
     0
174
     0
 93
        1
 44
0.0
173
     0
291
     0
 45
0.0
1001
ACAD
1000
AcDbSavedByObjectVersion
1070
     0
  0
VISUALSTYLE
  5
35
102
{ACAD_REACTORS
330
2A
102
}
330
2A
100
AcDbVisualStyle
  2
Dim
 70
    11
 71
     2
 72
     2
 73
     0
 90
        0
 40
-0.6
 41
-30.0
 62
     5
 63
     7
421
 16777215
 74
     1
 91
        4
 64
     7
 65
   257
 75
     1
175
     1
 42
1.0
 92
        8
 66
     7
 43
1.0
 76
     1
 77
     6
 78
     2
 67
     7
 79
     5
170
     0
171
     0
290
     0
174
     0
 93
        1
 44
-50.0
173
     0
291
     1
 45
0.0
1001
ACAD
1000
AcDbSavedByObjectVersion
1070
     0
  0
VISUALSTYLE
  5
39
102
{ACAD_REACTORS
330
2A
102
}
330
2A
100
AcDbVisualStyle
  2
Facepattern
 70
    15
 71
     2
 72
     2
 73
     0
 90
        0
 40
-0.6
 41
-30.0
 62
     5
 63
     7
421
 16777215
 74
     1
 91
        4
 64
     7
 65
   257
 75
     1
175
     1
 42
1.0
 92
        8
 66
     7
 43
1.0
 76
     1
 77
     6
 78
     2
 67
     7
 79
     5
170
     0
171
     0
290
     0
174
     0
 93
        1
 44
0.0
173
     0
291
     1
 45
0.0
1001
ACAD
1000
AcDbSavedByObjectVersion
1070
     0
  0
VISUALSTYLE
  5
2B
102
{ACAD_REACTORS
330
2A
102
}
330
2A
100
AcDbVisualStyle
  2
Flat
 70
     0
 71
     2
 72
     1
 73
     1
 90
        2
 40
-0.6
 41
30.0
 62
     5
 63
     7
421
 16777215
 74
     0
 91
        4
 64
     7
 65
   257
 75
     1
175
     1
 42
1.0
 92
        8
 66
     7
 43
1.0
 76
     1
 77
     6
 78
     2
 67
     7
 79
     5
170
     0
171
     0
290
     0
174
     0
 93
       13
 44
0.0
173
     0
291
     1
 45
0.0
1001
ACAD
1000
AcDbSavedByObjectVersion
1070
     0
  0
VISUALSTYLE
  5
2C
102
{ACAD_REACTORS
330
2A
102
}
330
2A
100
AcDbVisualStyle
  2
FlatWithEdges
 70
     1
 71
     2
 72
     1
 73
     1
 90
        2
 40
-0.6
 41
30.0
 62
     5
 63
     7
421
 16777215
 74
     1
 91
        4
 64
     7
 65
   257
 75
     1
175
     1
 42
1.0
 92
        0
 66
   257
 43
1.0
 76
     1
 77
     6
 78
     2
 67
     7
 79
     5
170
     0
171
     0
290
     0
174
     0
 93
       13
 44
0.0
173
     0
291
     1
 45
0.0
1001
ACAD
1000
AcDbSavedByObjectVersion
1070
     0
  0
VISUALSTYLE
  5
2D
102
{ACAD_REACTORS
330
2A
102
}
330
2A
100
AcDbVisualStyle
  2
Gouraud
 70
     2
 71
     2
 72
     2
 73
     1
 90
        2
 40
-0.6
 41
30.0
 62
     5
 63
     7
421
 16777215
 74
     0
 91
        4
 64
     7
 65
   257
 75
     1
175
     1
 42
1.0
 92
        0
 66
     7
 43
1.0
 76
     1
 77
     6
 78
     2
 67
     7
 79
     5
170
     0
171
     0
290
     0
174
     0
 93
       13
 44
0.0
173
     0
291
     1
 45
0.0
1001
ACAD
1000
AcDbSavedByObjectVersion
1070
     0
  0
VISUALSTYLE
  5
2E
102
{ACAD_REACTORS
330
2A
102
}
330
2A
100
AcDbVisualStyle
  2
GouraudWithEdges
 70
     3
 71
     2
 72
     2
 73
     1
 90
        2
 40
-0.6
 41
30.0
 62
     5
 63
     7
421
 16777215
 74
     1
 91
        4
 64
     7
 65
   257
 75
     1
175
     1
 42
1.0
 92
        0
 66
   257
 43
1.0
 76
     1
 77
     6
 78
     2
 67
     7
 79
     5
170
     0
171
     0
290
     0
174
     0
 93
       13
 44
0.0
173
     0
291
     1
 45
0.0
1001
ACAD
1000
AcDbSavedByObjectVersion
1070
     0
  0
VISUALSTYLE
  5
38
102
{ACAD_REACTORS
330
2A
102
}
330
2A
100
AcDbVisualStyle
  2
Linepattern
 70
    14
 71
     2
 72
     2
 73
     0
 90
        0
 40
-0.6
 41
-30.0
 62
     5
 63
     7
421
 16777215
 74
     1
 91
        4
 64
     7
 65
   257
 75
     7
175
     7
 42
1.0
 92
        8
 66
     7
 43
1.0
 76
     1
 77
     6
 78
     2
 67
     7
 79
     5
170
     0
171
     0
290
     0
174
     0
 93
        1
 44
0.0
173
     0
291
     1
 45
0.0
1001
ACAD
1000
AcDbSavedByObjectVersion
1070
     0
  0
VISUALSTYLE
  5
33
102
{ACAD_REACTORS
330
2A
102
}
330
2A
100
AcDbVisualStyle
  2
Realistic
 70
     8
 71
     2
 72
     2
 73
     0
 90
        0
 40
-0.6
 41
-30.0
 62
     5
 63
     7
421
 16777215
 74
     1
 91
        0
 64
     7
 65
   257
 75
     1
175
     1
 42
1.0
 92
        8
 66
     8
424
  7895160
 43
1.0
 76
     1
 77
     6
 78
     2
 67
     7
 79
     5
170
     0
171
     0
290
     0
174
     0
 93
       13
 44
0.0
173
     0
291
     0
 45
0.0
1001
ACAD
1000
AcDbSavedByObjectVersion
1070
     0
  0
VISUALSTYLE
  5
37
102
{ACAD_REACTORS
330
2A
102
}
330
2A
100
AcDbVisualStyle
  2
Thicken
 70
    13
 71
     2
 72
     2
 73
     0
 90
        0
 40
-0.6
 41
-30.0
 62
     5
 63
     7
421
 16777215
 74
     1
 91
        4
 64
     7
 65
   257
 75
     1
175
     1
 42
1.0
 92
       12
 66
     7
 43
1.0
 76
     1
 77
     6
 78
     2
 67
     7
 79
     5
170
     0
171
     0
290
     0
174
     0
 93
        1
 44
0.0
173
     0
291
     1
 45
0.0
1001
ACAD
1000
AcDbSavedByObjectVersion
1070
     0
  0
ENDSEC
  0
EOF
