ISO-10303-21;
HEADER;
FILE_DESCRIPTION (( 'STEP AP203' ),
    '1' );
FILE_NAME ('K902364-B01.STEP',
    '2025-01-22T09:01:33',
    ( '' ),
    ( '' ),
    'SwSTEP 2.0',
    'SolidWorks 2023',
    '' );
FILE_SCHEMA (( 'CONFIG_CONTROL_DESIGN' ));
ENDSEC;

DATA;
#1 = PERSON_AND_ORGANIZATION ( #167, #52 ) ;
#2 = LOCAL_TIME ( 10, 1, 33.00000000000000000, #221 ) ;
#3 = CIRCLE ( 'NONE', #180, 5.999999999999999112 ) ;
#4 = DIRECTION ( 'NONE',  ( 0.000000000000000000, -1.000000000000000000, 0.000000000000000000 ) ) ;
#5 = CC_DESIGN_DATE_AND_TIME_ASSIGNMENT ( #19, #146, ( #179 ) ) ;
#6 = ORIENTED_EDGE ( 'NONE', *, *, #23, .F. ) ;
#7 = CARTESIAN_POINT ( 'NONE',  ( 0.000000000000000000, 12.25000000000000355, 0.000000000000000000 ) ) ;
#8 = ADVANCED_FACE ( 'NONE', ( #256, #172 ), #20, .F. ) ;
#9 = ORIENTED_EDGE ( 'NONE', *, *, #58, .T. ) ;
#10 = EDGE_CURVE ( 'NONE', #53, #53, #262, .T. ) ;
#11 = CARTESIAN_POINT ( 'NONE',  ( 0.000000000000000000, -0.5000000000000004441, 2.999999999999999556 ) ) ;
#12 = DIRECTION ( 'NONE',  ( 0.000000000000000000, 0.000000000000000000, 1.000000000000000000 ) ) ;
#13 =( LENGTH_UNIT ( ) NAMED_UNIT ( * ) SI_UNIT ( .MILLI., .METRE. ) );
#14 = CIRCLE ( 'NONE', #131, 3.315294522865809945 ) ;
#15 = APPROVAL ( #62, 'UNSPECIFIED' ) ;
#16 = CALENDAR_DATE ( 2025, 22, 1 ) ;
#17 = ORIENTED_EDGE ( 'NONE', *, *, #217, .F. ) ;
#18 = APPROVAL_STATUS ( 'not_yet_approved' ) ;
#19 = DATE_AND_TIME ( #185, #226 ) ;
#20 = CYLINDRICAL_SURFACE ( 'NONE', #39, 3.000000000000000444 ) ;
#21 = FACE_OUTER_BOUND ( 'NONE', #236, .T. ) ;
#22 = EDGE_LOOP ( 'NONE', ( #35 ) ) ;
#23 = EDGE_CURVE ( 'NONE', #177, #177, #103, .T. ) ;
#24 = AXIS2_PLACEMENT_3D ( 'NONE', #257, #212, #105 ) ;
#25 = ORIENTED_EDGE ( 'NONE', *, *, #113, .T. ) ;
#26 = VERTEX_POINT ( 'NONE', #218 ) ;
#27 = DIRECTION ( 'NONE',  ( 0.000000000000000000, 0.000000000000000000, -1.000000000000000000 ) ) ;
#28 = FACE_BOUND ( 'NONE', #141, .T. ) ;
#29 = ADVANCED_FACE ( 'NONE', ( #208, #175 ), #124, .T. ) ;
#30 = CIRCLE ( 'NONE', #169, 5.957202720737915236 ) ;
#31 = APPROVAL_DATE_TIME ( #83, #50 ) ;
#32 = DESIGN_CONTEXT ( 'detailed design', #230, 'design' ) ;
#33 = PERSON_AND_ORGANIZATION_ROLE ( 'design_owner' ) ;
#34 = EDGE_CURVE ( 'NONE', #261, #261, #85, .T. ) ;
#35 = ORIENTED_EDGE ( 'NONE', *, *, #34, .T. ) ;
#36 = CIRCLE ( 'NONE', #110, 3.549328894856973005 ) ;
#37 = EDGE_LOOP ( 'NONE', ( #17 ) ) ;
#38 = APPROVAL_DATE_TIME ( #202, #258 ) ;
#39 = AXIS2_PLACEMENT_3D ( 'NONE', #188, #45, #121 ) ;
#40 = ORIENTED_EDGE ( 'NONE', *, *, #34, .F. ) ;
#41 = DIRECTION ( 'NONE',  ( 1.000000000000000000, 0.000000000000000000, 0.000000000000000000 ) ) ;
#42 = ADVANCED_FACE ( 'NONE', ( #21, #69 ), #72, .T. ) ;
#43 = ORIENTED_EDGE ( 'NONE', *, *, #229, .F. ) ;
#44 = DIRECTION ( 'NONE',  ( 0.000000000000000000, 0.000000000000000000, 1.000000000000000000 ) ) ;
#45 = DIRECTION ( 'NONE',  ( -0.000000000000000000, 1.000000000000000000, -0.000000000000000000 ) ) ;
#46 = EDGE_LOOP ( 'NONE', ( #25 ) ) ;
#47 = ORIENTED_EDGE ( 'NONE', *, *, #10, .T. ) ;
#48 = AXIS2_PLACEMENT_3D ( 'NONE', #132, #95, #27 ) ;
#49 = DIRECTION ( 'NONE',  ( -0.000000000000000000, 1.000000000000000000, 0.000000000000000000 ) ) ;
#50 = APPROVAL ( #18, 'UNSPECIFIED' ) ;
#51 = CARTESIAN_POINT ( 'NONE',  ( 0.000000000000000000, 12.25000000000000533, 0.000000000000000000 ) ) ;
#52 = ORGANIZATION ( 'UNSPECIFIED', 'UNSPECIFIED', '' ) ;
#53 = VERTEX_POINT ( 'NONE', #11 ) ;
#54 = CARTESIAN_POINT ( 'NONE',  ( 0.000000000000000000, 10.31911356353975684, 3.529356780200486821 ) ) ;
#55 = ADVANCED_FACE ( 'NONE', ( #255, #147 ), #263, .T. ) ;
#56 = APPLICATION_PROTOCOL_DEFINITION ( 'international standard', 'config_control_design', 1994, #230 ) ;
#57 = CC_DESIGN_APPROVAL ( #50, ( #220 ) ) ;
#58 = EDGE_CURVE ( 'NONE', #260, #260, #30, .T. ) ;
#59 = PERSON_AND_ORGANIZATION ( #167, #52 ) ;
#60 = COORDINATED_UNIVERSAL_TIME_OFFSET ( 1, 0, .AHEAD. ) ;
#61 = PERSON_AND_ORGANIZATION ( #167, #52 ) ;
#62 = APPROVAL_STATUS ( 'not_yet_approved' ) ;
#63 = AXIS2_PLACEMENT_3D ( 'NONE', #7, #205, #152 ) ;
#64 = ADVANCED_FACE ( 'NONE', ( #235, #209 ), #187, .F. ) ;
#65 = ORIENTED_EDGE ( 'NONE', *, *, #217, .T. ) ;
#66 = CARTESIAN_POINT ( 'NONE',  ( 0.000000000000000000, 10.31911356353975684, 0.000000000000000000 ) ) ;
#67 = MANIFOLD_SOLID_BREP ( 'Monoblock', #160 ) ;
#68 = DIRECTION ( 'NONE',  ( 0.000000000000000000, 0.000000000000000000, -1.000000000000000000 ) ) ;
#69 = FACE_OUTER_BOUND ( 'NONE', #173, .T. ) ;
#70 = CARTESIAN_POINT ( 'NONE',  ( 0.000000000000000000, 11.83626287381667019, 0.000000000000000000 ) ) ;
#71 = FACE_BOUND ( 'NONE', #138, .T. ) ;
#72 = TOROIDAL_SURFACE ( 'NONE', #199, 5.000000000000000000, 0.9999999999999995559 ) ;
#73 = CARTESIAN_POINT ( 'NONE',  ( 0.000000000000000000, 0.000000000000000000, 0.000000000000000000 ) ) ;
#74 = CARTESIAN_POINT ( 'NONE',  ( -1.148050297095272176, 12.25000000000000355, 2.771638597533860437 ) ) ;
#75 = CC_DESIGN_APPROVAL ( #258, ( #179 ) ) ;
#76 = ADVANCED_BREP_SHAPE_REPRESENTATION ( 'K902364-B01', ( #67, #266 ), #193 ) ;
#77 = CARTESIAN_POINT ( 'NONE',  ( 0.000000000000000000, 12.25000000000000355, 3.000000000000001332 ) ) ;
#78 = FACE_OUTER_BOUND ( 'NONE', #98, .T. ) ;
#79 = COORDINATED_UNIVERSAL_TIME_OFFSET ( 1, 0, .AHEAD. ) ;
#80 = EDGE_LOOP ( 'NONE', ( #117 ) ) ;
#81 = APPROVAL_STATUS ( 'not_yet_approved' ) ;
#82 = APPROVAL_ROLE ( '' ) ;
#83 = DATE_AND_TIME ( #162, #142 ) ;
#84 = APPROVAL_PERSON_ORGANIZATION ( #61, #258, #231 ) ;
#85 = CIRCLE ( 'NONE', #63, 3.000000000000001332 ) ;
#86 = CONICAL_SURFACE ( 'NONE', #48, 3.529356780200486821, 0.2936190718709798531 ) ;
#87 = DIRECTION ( 'NONE',  ( 0.000000000000000000, -1.000000000000000000, 0.000000000000000000 ) ) ;
#88 = CARTESIAN_POINT ( 'NONE',  ( 0.000000000000000000, 1.999999999999999112, 0.000000000000000000 ) ) ;
#89 = DIRECTION ( 'NONE',  ( -0.000000000000000000, 1.000000000000000000, -0.000000000000000000 ) ) ;
#90 = DIRECTION ( 'NONE',  ( -0.000000000000000000, 1.000000000000000000, -0.000000000000000000 ) ) ;
#91 = DIRECTION ( 'NONE',  ( 0.000000000000000000, 0.000000000000000000, 1.000000000000000000 ) ) ;
#92 = SECURITY_CLASSIFICATION ( '', '', #168 ) ;
#93 = LOCAL_TIME ( 10, 1, 33.00000000000000000, #227 ) ;
#94 = APPLICATION_PROTOCOL_DEFINITION ( 'international standard', 'config_control_design', 1994, #210 ) ;
#95 = DIRECTION ( 'NONE',  ( 0.000000000000000000, -1.000000000000000000, 0.000000000000000000 ) ) ;
#96 = CARTESIAN_POINT ( 'NONE',  ( 0.000000000000000000, -0.5000000000000004441, 0.000000000000000000 ) ) ;
#97 = VERTEX_POINT ( 'NONE', #161 ) ;
#98 = EDGE_LOOP ( 'NONE', ( #65 ) ) ;
#99 = DIRECTION ( 'NONE',  ( 0.000000000000000000, 0.000000000000000000, 1.000000000000000000 ) ) ;
#100 = ORIENTED_EDGE ( 'NONE', *, *, #58, .F. ) ;
#101 = PERSON_AND_ORGANIZATION_ROLE ( 'creator' ) ;
#102 = MECHANICAL_CONTEXT ( 'NONE', #210, 'mechanical' ) ;
#103 = CIRCLE ( 'NONE', #251, 3.999999999999996447 ) ;
#104 = FACE_OUTER_BOUND ( 'NONE', #164, .T. ) ;
#105 = DIRECTION ( 'NONE',  ( 0.000000000000000000, 0.000000000000000000, 1.000000000000000000 ) ) ;
#106 = DIRECTION ( 'NONE',  ( -0.000000000000000000, 1.000000000000000000, -0.000000000000000000 ) ) ;
#107 = DIRECTION ( 'NONE',  ( 0.000000000000000000, 0.000000000000000000, 1.000000000000000000 ) ) ;
#108 = ADVANCED_FACE ( 'NONE', ( #122, #104 ), #232, .T. ) ;
#109 = DIRECTION ( 'NONE',  ( 0.000000000000000000, 0.000000000000000000, 1.000000000000000000 ) ) ;
#110 = AXIS2_PLACEMENT_3D ( 'NONE', #216, #197, #240 ) ;
#111 = LOCAL_TIME ( 10, 1, 33.00000000000000000, #60 ) ;
#112 = DIRECTION ( 'NONE',  ( -0.000000000000000000, 1.000000000000000000, -0.000000000000000000 ) ) ;
#113 = EDGE_CURVE ( 'NONE', #181, #181, #115, .T. ) ;
#114 = CARTESIAN_POINT ( 'NONE',  ( 0.000000000000000000, 11.83626287381667019, 3.999999999999996447 ) ) ;
#115 = CIRCLE ( 'NONE', #145, 3.529356780200486821 ) ;
#116 = PERSON_AND_ORGANIZATION_ROLE ( 'creator' ) ;
#117 = ORIENTED_EDGE ( 'NONE', *, *, #23, .T. ) ;
#118 = ORIENTED_EDGE ( 'NONE', *, *, #140, .T. ) ;
#119 = CARTESIAN_POINT ( 'NONE',  ( -2.296100594190543465, -0.5000000000000007772, 5.543277195067718210 ) ) ;
#120 = PRODUCT ( 'K902364-B01', 'K902364-B01', '', ( #102 ) ) ;
#121 = DIRECTION ( 'NONE',  ( 0.000000000000000000, 0.000000000000000000, 1.000000000000000000 ) ) ;
#122 = FACE_BOUND ( 'NONE', #249, .T. ) ;
#123 = PRODUCT_DEFINITION_SHAPE ( 'NONE', 'NONE',  #179 ) ;
#124 = CYLINDRICAL_SURFACE ( 'NONE', #24, 5.999999999999999112 ) ;
#125 = CC_DESIGN_PERSON_AND_ORGANIZATION_ASSIGNMENT ( #163, #101, ( #179 ) ) ;
#126 = AXIS2_PLACEMENT_3D ( 'NONE', #74, #49, #243 ) ;
#127 = ORIENTED_EDGE ( 'NONE', *, *, #129, .T. ) ;
#128 = VERTEX_POINT ( 'NONE', #244 ) ;
#129 = EDGE_CURVE ( 'NONE', #159, #159, #3, .T. ) ;
#130 = DIRECTION ( 'NONE',  ( 0.000000000000000000, 0.000000000000000000, 1.000000000000000000 ) ) ;
#131 = AXIS2_PLACEMENT_3D ( 'NONE', #51, #112, #178 ) ;
#132 = CARTESIAN_POINT ( 'NONE',  ( 0.000000000000000000, 10.31911356353975684, 0.000000000000000000 ) ) ;
#133 = CARTESIAN_POINT ( 'NONE',  ( 0.000000000000000000, 1.999999999999999112, 5.999999999999999112 ) ) ;
#134 =( NAMED_UNIT ( * ) PLANE_ANGLE_UNIT ( ) SI_UNIT ( $, .RADIAN. ) );
#135 = AXIS2_PLACEMENT_3D ( 'NONE', #241, #157, #196 ) ;
#136 = COORDINATED_UNIVERSAL_TIME_OFFSET ( 1, 0, .AHEAD. ) ;
#137 = APPROVAL_DATE_TIME ( #248, #15 ) ;
#138 = EDGE_LOOP ( 'NONE', ( #191 ) ) ;
#139 = SHAPE_DEFINITION_REPRESENTATION ( #123, #76 ) ;
#140 = EDGE_CURVE ( 'NONE', #97, #97, #211, .T. ) ;
#141 = EDGE_LOOP ( 'NONE', ( #228 ) ) ;
#142 = LOCAL_TIME ( 10, 1, 33.00000000000000000, #79 ) ;
#143 = APPROVAL_ROLE ( '' ) ;
#144 = AXIS2_PLACEMENT_3D ( 'NONE', #237, #90, #91 ) ;
#145 = AXIS2_PLACEMENT_3D ( 'NONE', #66, #149, #44 ) ;
#146 = DATE_TIME_ROLE ( 'creation_date' ) ;
#147 = FACE_BOUND ( 'NONE', #37, .T. ) ;
#148 = PRODUCT_RELATED_PRODUCT_CATEGORY ( 'detail', '', ( #120 ) ) ;
#149 = DIRECTION ( 'NONE',  ( -0.000000000000000000, 1.000000000000000000, -0.000000000000000000 ) ) ;
#150 = DIRECTION ( 'NONE',  ( -0.000000000000000000, 1.000000000000000000, -0.000000000000000000 ) ) ;
#151 = DIRECTION ( 'NONE',  ( -0.000000000000000000, 1.000000000000000000, -0.000000000000000000 ) ) ;
#152 = DIRECTION ( 'NONE',  ( 0.000000000000000000, 0.000000000000000000, 1.000000000000000000 ) ) ;
#153 = APPROVAL_PERSON_ORGANIZATION ( #1, #50, #143 ) ;
#154 = AXIS2_PLACEMENT_3D ( 'NONE', #96, #264, #130 ) ;
#155 = CARTESIAN_POINT ( 'NONE',  ( 0.000000000000000000, 2.289418298336389768, 5.957202720737915236 ) ) ;
#156 = DIRECTION ( 'NONE',  ( -0.000000000000000000, 1.000000000000000000, -0.000000000000000000 ) ) ;
#157 = DIRECTION ( 'NONE',  ( -0.000000000000000000, 1.000000000000000000, -0.000000000000000000 ) ) ;
#158 = CC_DESIGN_SECURITY_CLASSIFICATION ( #92, ( #220 ) ) ;
#159 = VERTEX_POINT ( 'NONE', #133 ) ;
#160 = CLOSED_SHELL ( 'NONE', ( #8, #186, #55, #238, #64, #213, #42, #29, #108 ) ) ;
#161 = CARTESIAN_POINT ( 'NONE',  ( 0.000000000000000000, -0.5000000000000004441, 5.999999999999999112 ) ) ;
#162 = CALENDAR_DATE ( 2025, 22, 1 ) ;
#163 = PERSON_AND_ORGANIZATION ( #167, #52 ) ;
#164 = EDGE_LOOP ( 'NONE', ( #225 ) ) ;
#165 = CALENDAR_DATE ( 2025, 22, 1 ) ;
#166 = CALENDAR_DATE ( 2025, 22, 1 ) ;
#167 = PERSON ( 'UNSPECIFIED', 'UNSPECIFIED', 'UNSPECIFIED', ('UNSPECIFIED'), ('UNSPECIFIED'), ('UNSPECIFIED') ) ;
#168 = SECURITY_CLASSIFICATION_LEVEL ( 'unclassified' ) ;
#169 = AXIS2_PLACEMENT_3D ( 'NONE', #192, #150, #206 ) ;
#170 = CARTESIAN_POINT ( 'NONE',  ( 0.000000000000000000, 12.25000000000000533, 0.000000000000000000 ) ) ;
#171 = CONICAL_SURFACE ( 'NONE', #135, 3.999999999999996447, 0.3891092722158887574 ) ;
#172 = FACE_OUTER_BOUND ( 'NONE', #184, .T. ) ;
#173 = EDGE_LOOP ( 'NONE', ( #100 ) ) ;
#174 = EDGE_LOOP ( 'NONE', ( #118 ) ) ;
#175 = FACE_OUTER_BOUND ( 'NONE', #224, .T. ) ;
#176 = APPROVAL_PERSON_ORGANIZATION ( #200, #15, #82 ) ;
#177 = VERTEX_POINT ( 'NONE', #114 ) ;
#178 = DIRECTION ( 'NONE',  ( 0.000000000000000000, 0.000000000000000000, 1.000000000000000000 ) ) ;
#179 = PRODUCT_DEFINITION ( 'UNKNOWN', '', #220, #32 ) ;
#180 = AXIS2_PLACEMENT_3D ( 'NONE', #215, #156, #12 ) ;
#181 = VERTEX_POINT ( 'NONE', #54 ) ;
#182 = EDGE_LOOP ( 'NONE', ( #40 ) ) ;
#183 = PERSON_AND_ORGANIZATION ( #167, #52 ) ;
#184 = EDGE_LOOP ( 'NONE', ( #203 ) ) ;
#185 = CALENDAR_DATE ( 2025, 22, 1 ) ;
#186 = ADVANCED_FACE ( 'NONE', ( #78, #242 ), #214, .T. ) ;
#187 = TOROIDAL_SURFACE ( 'NONE', #252, 4.127608480661682400, 0.6249999999999994449 ) ;
#188 = CARTESIAN_POINT ( 'NONE',  ( 0.000000000000000000, 6.085065187504564932, 0.000000000000000000 ) ) ;
#189 = EDGE_LOOP ( 'NONE', ( #9 ) ) ;
#190 = DIRECTION ( 'NONE',  ( 0.000000000000000000, 0.000000000000000000, 1.000000000000000000 ) ) ;
#191 = ORIENTED_EDGE ( 'NONE', *, *, #113, .F. ) ;
#192 = CARTESIAN_POINT ( 'NONE',  ( 0.000000000000000000, 2.289418298336389768, 0.000000000000000000 ) ) ;
#193 =( GEOMETRIC_REPRESENTATION_CONTEXT ( 3 ) GLOBAL_UNCERTAINTY_ASSIGNED_CONTEXT ( ( #245 ) ) GLOBAL_UNIT_ASSIGNED_CONTEXT ( ( #13, #134, #198 ) ) REPRESENTATION_CONTEXT ( 'NONE', 'WORKASPACE' ) );
#194 = CC_DESIGN_PERSON_AND_ORGANIZATION_ASSIGNMENT ( #247, #33, ( #120 ) ) ;
#195 = FACE_OUTER_BOUND ( 'NONE', #265, .T. ) ;
#196 = DIRECTION ( 'NONE',  ( 0.000000000000000000, 0.000000000000000000, 1.000000000000000000 ) ) ;
#197 = DIRECTION ( 'NONE',  ( -0.000000000000000000, 1.000000000000000000, -0.000000000000000000 ) ) ;
#198 =( NAMED_UNIT ( * ) SI_UNIT ( $, .STERADIAN. ) SOLID_ANGLE_UNIT ( ) );
#199 = AXIS2_PLACEMENT_3D ( 'NONE', #88, #151, #109 ) ;
#200 = PERSON_AND_ORGANIZATION ( #167, #52 ) ;
#201 = PERSON_AND_ORGANIZATION_ROLE ( 'design_supplier' ) ;
#202 = DATE_AND_TIME ( #165, #2 ) ;
#203 = ORIENTED_EDGE ( 'NONE', *, *, #10, .F. ) ;
#204 = CC_DESIGN_PERSON_AND_ORGANIZATION_ASSIGNMENT ( #183, #116, ( #220 ) ) ;
#205 = DIRECTION ( 'NONE',  ( -0.000000000000000000, 1.000000000000000000, -0.000000000000000000 ) ) ;
#206 = DIRECTION ( 'NONE',  ( 0.000000000000000000, 0.000000000000000000, 1.000000000000000000 ) ) ;
#207 = CC_DESIGN_PERSON_AND_ORGANIZATION_ASSIGNMENT ( #59, #268, ( #92 ) ) ;
#208 = FACE_OUTER_BOUND ( 'NONE', #174, .T. ) ;
#209 = FACE_OUTER_BOUND ( 'NONE', #234, .T. ) ;
#210 = APPLICATION_CONTEXT ( 'configuration controlled 3d designs of mechanical parts and assemblies' ) ;
#211 = CIRCLE ( 'NONE', #154, 5.999999999999999112 ) ;
#212 = DIRECTION ( 'NONE',  ( -0.000000000000000000, 1.000000000000000000, -0.000000000000000000 ) ) ;
#213 = ADVANCED_FACE ( 'NONE', ( #219, #71 ), #86, .T. ) ;
#214 = PLANE ( 'NONE',  #126 ) ;
#215 = CARTESIAN_POINT ( 'NONE',  ( 0.000000000000000000, 1.999999999999999112, 0.000000000000000000 ) ) ;
#216 = CARTESIAN_POINT ( 'NONE',  ( 0.000000000000000000, 10.73710276388421292, 0.000000000000000000 ) ) ;
#217 = EDGE_CURVE ( 'NONE', #128, #128, #14, .T. ) ;
#218 = CARTESIAN_POINT ( 'NONE',  ( 0.000000000000000000, 10.73710276388421292, 3.549328894856973005 ) ) ;
#219 = FACE_OUTER_BOUND ( 'NONE', #189, .T. ) ;
#220 = PRODUCT_DEFINITION_FORMATION_WITH_SPECIFIED_SOURCE ( 'ANY', '', #120, .NOT_KNOWN. ) ;
#221 = COORDINATED_UNIVERSAL_TIME_OFFSET ( 1, 0, .AHEAD. ) ;
#222 = AXIS2_PLACEMENT_3D ( 'NONE', #119, #4, #253 ) ;
#223 = DATE_TIME_ROLE ( 'classification_date' ) ;
#224 = EDGE_LOOP ( 'NONE', ( #269 ) ) ;
#225 = ORIENTED_EDGE ( 'NONE', *, *, #140, .F. ) ;
#226 = LOCAL_TIME ( 10, 1, 33.00000000000000000, #136 ) ;
#227 = COORDINATED_UNIVERSAL_TIME_OFFSET ( 1, 0, .AHEAD. ) ;
#228 = ORIENTED_EDGE ( 'NONE', *, *, #229, .T. ) ;
#229 = EDGE_CURVE ( 'NONE', #26, #26, #36, .T. ) ;
#230 = APPLICATION_CONTEXT ( 'configuration controlled 3d designs of mechanical parts and assemblies' ) ;
#231 = APPROVAL_ROLE ( '' ) ;
#232 = PLANE ( 'NONE',  #222 ) ;
#233 = CC_DESIGN_DATE_AND_TIME_ASSIGNMENT ( #267, #223, ( #92 ) ) ;
#234 = EDGE_LOOP ( 'NONE', ( #43 ) ) ;
#235 = FACE_OUTER_BOUND ( 'NONE', #46, .T. ) ;
#236 = EDGE_LOOP ( 'NONE', ( #127 ) ) ;
#237 = CARTESIAN_POINT ( 'NONE',  ( 0.000000000000000000, -0.5000000000000004441, 0.000000000000000000 ) ) ;
#238 = ADVANCED_FACE ( 'NONE', ( #28, #195 ), #171, .T. ) ;
#239 = AXIS2_PLACEMENT_3D ( 'NONE', #170, #87, #68 ) ;
#240 = DIRECTION ( 'NONE',  ( 0.000000000000000000, 0.000000000000000000, 1.000000000000000000 ) ) ;
#241 = CARTESIAN_POINT ( 'NONE',  ( 0.000000000000000000, 11.83626287381667019, 0.000000000000000000 ) ) ;
#242 = FACE_BOUND ( 'NONE', #182, .T. ) ;
#243 = DIRECTION ( 'NONE',  ( 0.000000000000000000, 0.000000000000000000, 1.000000000000000000 ) ) ;
#244 = CARTESIAN_POINT ( 'NONE',  ( 0.000000000000000000, 12.25000000000000533, 3.315294522865809945 ) ) ;
#245 = UNCERTAINTY_MEASURE_WITH_UNIT (LENGTH_MEASURE( 1.000000000000000082E-05 ), #13, 'distance_accuracy_value', 'NONE');
#246 = CC_DESIGN_APPROVAL ( #15, ( #92 ) ) ;
#247 = PERSON_AND_ORGANIZATION ( #167, #52 ) ;
#248 = DATE_AND_TIME ( #166, #93 ) ;
#249 = EDGE_LOOP ( 'NONE', ( #47 ) ) ;
#250 = PERSON_AND_ORGANIZATION ( #167, #52 ) ;
#251 = AXIS2_PLACEMENT_3D ( 'NONE', #70, #106, #190 ) ;
#252 = AXIS2_PLACEMENT_3D ( 'NONE', #259, #89, #107 ) ;
#253 = DIRECTION ( 'NONE',  ( 0.000000000000000000, -0.000000000000000000, -1.000000000000000000 ) ) ;
#254 = CC_DESIGN_PERSON_AND_ORGANIZATION_ASSIGNMENT ( #250, #201, ( #220 ) ) ;
#255 = FACE_OUTER_BOUND ( 'NONE', #80, .T. ) ;
#256 = FACE_OUTER_BOUND ( 'NONE', #22, .T. ) ;
#257 = CARTESIAN_POINT ( 'NONE',  ( 0.000000000000000000, 6.085065187504564932, 0.000000000000000000 ) ) ;
#258 = APPROVAL ( #81, 'UNSPECIFIED' ) ;
#259 = CARTESIAN_POINT ( 'NONE',  ( 0.000000000000000000, 10.50000000000000000, 0.000000000000000000 ) ) ;
#260 = VERTEX_POINT ( 'NONE', #155 ) ;
#261 = VERTEX_POINT ( 'NONE', #77 ) ;
#262 = CIRCLE ( 'NONE', #144, 2.999999999999999556 ) ;
#263 = CONICAL_SURFACE ( 'NONE', #239, 3.315294522865809945, 1.027253575067422320 ) ;
#264 = DIRECTION ( 'NONE',  ( -0.000000000000000000, 1.000000000000000000, -0.000000000000000000 ) ) ;
#265 = EDGE_LOOP ( 'NONE', ( #6 ) ) ;
#266 = AXIS2_PLACEMENT_3D ( 'NONE', #73, #99, #41 ) ;
#267 = DATE_AND_TIME ( #16, #111 ) ;
#268 = PERSON_AND_ORGANIZATION_ROLE ( 'classification_officer' ) ;
#269 = ORIENTED_EDGE ( 'NONE', *, *, #129, .F. ) ;
ENDSEC;
END-ISO-10303-21;
