  0
SECTION
  2
HEADER
  9
$ACADVER
  1
AC1018
  9
$ACADMAINTVER
 70
     0
  9
$DWGCODEPAGE
  3
ANSI_1252
  9
$INSBASE
 10
0.0
 20
0.0
 30
0.0
  9
$EXTMIN
 10
1.000000000000000E+20
 20
1.000000000000000E+20
 30
1.000000000000000E+20
  9
$EXTMAX
 10
-1.000000000000000E+20
 20
-1.000000000000000E+20
 30
-1.000000000000000E+20
  9
$LIMMIN
 10
0.0
 20
0.0
  9
$LIMMAX
 10
12.0
 20
9.0
  9
$ORTHOMODE
 70
     0
  9
$REGENMODE
 70
     1
  9
$FILLMODE
 70
     1
  9
$QTEXTMODE
 70
     0
  9
$MIRRTEXT
 70
     1
  9
$LTSCALE
 40
1.0
  9
$ATTMODE
 70
     1
  9
$TEXTSIZE
 40
0.2
  9
$TRACEWID
 40
0.05
  9
$TEXTSTYLE
  7
Standard
  9
$CLAYER
  8
0
  9
$CELTYPE
  6
ByLayer
  9
$CECOLOR
 62
   256
  9
$CELTSCALE
 40
1.0
  9
$DISPSILH
 70
     0
  9
$DIMSCALE
 40
1.0
  9
$DIMASZ
 40
0.18
  9
$DIMEXO
 40
0.0625
  9
$DIMDLI
 40
0.38
  9
$DIMRND
 40
0.0
  9
$DIMDLE
 40
0.0
  9
$DIMEXE
 40
0.18
  9
$DIMTP
 40
0.0
  9
$DIMTM
 40
0.0
  9
$DIMTXT
 40
0.18
  9
$DIMCEN
 40
0.09
  9
$DIMTSZ
 40
0.0
  9
$DIMTOL
 70
     0
  9
$DIMLIM
 70
     0
  9
$DIMTIH
 70
     1
  9
$DIMTOH
 70
     1
  9
$DIMSE1
 70
     0
  9
$DIMSE2
 70
     0
  9
$DIMTAD
 70
     0
  9
$DIMZIN
 70
     0
  9
$DIMBLK
  1

  9
$DIMASO
 70
     1
  9
$DIMSHO
 70
     1
  9
$DIMPOST
  1

  9
$DIMAPOST
  1

  9
$DIMALT
 70
     0
  9
$DIMALTD
 70
     2
  9
$DIMALTF
 40
25.4
  9
$DIMLFAC
 40
1.0
  9
$DIMTOFL
 70
     0
  9
$DIMTVP
 40
0.0
  9
$DIMTIX
 70
     0
  9
$DIMSOXD
 70
     0
  9
$DIMSAH
 70
     0
  9
$DIMBLK1
  1

  9
$DIMBLK2
  1

  9
$DIMSTYLE
  2
Standard
  9
$DIMCLRD
 70
     0
  9
$DIMCLRE
 70
     0
  9
$DIMCLRT
 70
     0
  9
$DIMTFAC
 40
1.0
  9
$DIMGAP
 40
0.09
  9
$DIMJUST
 70
     0
  9
$DIMSD1
 70
     0
  9
$DIMSD2
 70
     0
  9
$DIMTOLJ
 70
     1
  9
$DIMTZIN
 70
     0
  9
$DIMALTZ
 70
     0
  9
$DIMALTTZ
 70
     0
  9
$DIMUPT
 70
     0
  9
$DIMDEC
 70
     4
  9
$DIMTDEC
 70
     4
  9
$DIMALTU
 70
     2
  9
$DIMALTTD
 70
     2
  9
$DIMTXSTY
  7
Standard
  9
$DIMAUNIT
 70
     0
  9
$DIMADEC
 70
     0
  9
$DIMALTRND
 40
0.0
  9
$DIMAZIN
 70
     0
  9
$DIMDSEP
 70
    46
  9
$DIMATFIT
 70
     3
  9
$DIMFRAC
 70
     0
  9
$DIMLDRBLK
  1

  9
$DIMLUNIT
 70
     2
  9
$DIMLWD
 70
    -2
  9
$DIMLWE
 70
    -2
  9
$DIMTMOVE
 70
     0
  9
$LUNITS
 70
     2
  9
$LUPREC
 70
     4
  9
$SKETCHINC
 40
0.1
  9
$FILLETRAD
 40
0.5
  9
$AUNITS
 70
     0
  9
$AUPREC
 70
     0
  9
$MENU
  1
.
  9
$ELEVATION
 40
0.0
  9
$PELEVATION
 40
0.0
  9
$THICKNESS
 40
0.0
  9
$LIMCHECK
 70
     0
  9
$CHAMFERA
 40
0.5
  9
$CHAMFERB
 40
0.5
  9
$CHAMFERC
 40
1.0
  9
$CHAMFERD
 40
0.0
  9
$SKPOLY
 70
     0
  9
$TDCREATE
 40
2456633.613977963
  9
$TDUCREATE
 40
2456633.572311296
  9
$TDUPDATE
 40
2456633.613977975
  9
$TDUUPDATE
 40
2456633.572311308
  9
$TDINDWG
 40
0.0000000116
  9
$TDUSRTIMER
 40
0.0000000116
  9
$USRTIMER
 70
     1
  9
$ANGBASE
 50
0.0
  9
$ANGDIR
 70
     0
  9
$PDMODE
 70
     0
  9
$PDSIZE
 40
0.0
  9
$PLINEWID
 40
0.0
  9
$SPLFRAME
 70
     0
  9
$SPLINETYPE
 70
     6
  9
$SPLINESEGS
 70
     8
  9
$HANDSEED
  5
60
  9
$SURFTAB1
 70
     6
  9
$SURFTAB2
 70
     6
  9
$SURFTYPE
 70
     6
  9
$SURFU
 70
     6
  9
$SURFV
 70
     6
  9
$UCSBASE
  2

  9
$UCSNAME
  2

  9
$UCSORG
 10
0.0
 20
0.0
 30
0.0
  9
$UCSXDIR
 10
1.0
 20
0.0
 30
0.0
  9
$UCSYDIR
 10
0.0
 20
1.0
 30
0.0
  9
$UCSORTHOREF
  2

  9
$UCSORTHOVIEW
 70
     0
  9
$UCSORGTOP
 10
0.0
 20
0.0
 30
0.0
  9
$UCSORGBOTTOM
 10
0.0
 20
0.0
 30
0.0
  9
$UCSORGLEFT
 10
0.0
 20
0.0
 30
0.0
  9
$UCSORGRIGHT
 10
0.0
 20
0.0
 30
0.0
  9
$UCSORGFRONT
 10
0.0
 20
0.0
 30
0.0
  9
$UCSORGBACK
 10
0.0
 20
0.0
 30
0.0
  9
$PUCSBASE
  2

  9
$PUCSNAME
  2

  9
$PUCSORG
 10
0.0
 20
0.0
 30
0.0
  9
$PUCSXDIR
 10
1.0
 20
0.0
 30
0.0
  9
$PUCSYDIR
 10
0.0
 20
1.0
 30
0.0
  9
$PUCSORTHOREF
  2

  9
$PUCSORTHOVIEW
 70
     0
  9
$PUCSORGTOP
 10
0.0
 20
0.0
 30
0.0
  9
$PUCSORGBOTTOM
 10
0.0
 20
0.0
 30
0.0
  9
$PUCSORGLEFT
 10
0.0
 20
0.0
 30
0.0
  9
$PUCSORGRIGHT
 10
0.0
 20
0.0
 30
0.0
  9
$PUCSORGFRONT
 10
0.0
 20
0.0
 30
0.0
  9
$PUCSORGBACK
 10
0.0
 20
0.0
 30
0.0
  9
$USERI1
 70
     0
  9
$USERI2
 70
     0
  9
$USERI3
 70
     0
  9
$USERI4
 70
     0
  9
$USERI5
 70
     0
  9
$USERR1
 40
0.0
  9
$USERR2
 40
0.0
  9
$USERR3
 40
0.0
  9
$USERR4
 40
0.0
  9
$USERR5
 40
0.0
  9
$WORLDVIEW
 70
     1
  9
$SHADEDGE
 70
     3
  9
$SHADEDIF
 70
    70
  9
$TILEMODE
 70
     1
  9
$MAXACTVP
 70
    64
  9
$PINSBASE
 10
0.0
 20
0.0
 30
0.0
  9
$PLIMCHECK
 70
     0
  9
$PEXTMIN
 10
1.000000000000000E+20
 20
1.000000000000000E+20
 30
1.000000000000000E+20
  9
$PEXTMAX
 10
-1.000000000000000E+20
 20
-1.000000000000000E+20
 30
-1.000000000000000E+20
  9
$PLIMMIN
 10
0.0
 20
0.0
  9
$PLIMMAX
 10
12.0
 20
9.0
  9
$UNITMODE
 70
     0
  9
$VISRETAIN
 70
     1
  9
$PLINEGEN
 70
     0
  9
$PSLTSCALE
 70
     1
  9
$TREEDEPTH
 70
  3020
  9
$CMLSTYLE
  2
Standard
  9
$CMLJUST
 70
     0
  9
$CMLSCALE
 40
1.0
  9
$PROXYGRAPHICS
 70
     1
  9
$MEASUREMENT
 70
     0
  9
$CELWEIGHT
370
    -1
  9
$ENDCAPS
280
     0
  9
$JOINSTYLE
280
     0
  9
$LWDISPLAY
290
     1
  9
$INSUNITS
 70
     1
  9
$HYPERLINKBASE
  1

  9
$STYLESHEET
  1

  9
$XEDIT
290
     1
  9
$CEPSNTYPE
380
     0
  9
$PSTYLEMODE
290
     1
  9
$FINGERPRINTGUID
  2
{108C3926-3C88-474C-92AB-8383F498A312}
  9
$VERSIONGUID
  2
{FAEB1C32-E019-11D5-929B-00C0DF256EC4}
  9
$EXTNAMES
290
     1
  9
$PSVPSCALE
 40
0.0
  9
$OLESTARTUP
290
     0
  9
$SORTENTS
280
   127
  9
$INDEXCTL
280
     0
  9
$HIDETEXT
280
     1
  9
$XCLIPFRAME
290
     0
  9
$HALOGAP
280
     0
  9
$OBSCOLOR
 70
   257
  9
$OBSLTYPE
280
     0
  9
$INTERSECTIONDISPLAY
280
     0
  9
$INTERSECTIONCOLOR
 70
   257
  9
$DIMASSOC
280
     2
  9
$PROJECTNAME
  1

  0
ENDSEC
  0
SECTION
  2
CLASSES
  0
CLASS
  1
ACDBDICTIONARYWDFLT
  2
AcDbDictionaryWithDefault
  3
ObjectDBX Classes
 90
        0
 91
        3
280
     0
281
     0
  0
CLASS
  1
VISUALSTYLE
  2
AcDbVisualStyle
  3
ObjectDBX Classes
 90
     4095
 91
        3
280
     0
281
     0
  0
ENDSEC
  0
SECTION
  2
TABLES
  0
TABLE
  2
VPORT
  5
8
330
0
100
AcDbSymbolTable
 70
     1
  0
VPORT
  5
29
330
8
100
AcDbSymbolTableRecord
100
AcDbViewportTableRecord
  2
*Active
 70
     0
 10
0.0
 20
0.0
 11
1.0
 21
1.0
 12
0.0
 22
0.0
 13
0.0
 23
0.0
 14
0.5
 24
0.5
 15
0.5
 25
0.5
 16
0.0
 26
0.0
 36
1.0
 17
105.0008259828644
 27
-148.4999796178229
 37
0.0
 40
296.9999592356459
 41
0.7070763662937379
 42
50.0
 43
0.0
 44
0.0
 50
0.0
 51
0.0
 71
     0
 72
   100
 73
     1
 74
     3
 75
     0
 76
     0
 77
     0
 78
     0
281
     0
 65
     1
110
0.0
120
0.0
130
0.0
111
1.0
121
0.0
131
0.0
112
0.0
122
1.0
132
0.0
 79
     0
146
0.0
  0
ENDTAB
  0
TABLE
  2
LTYPE
  5
5
330
0
100
AcDbSymbolTable
 70
     1
  0
LTYPE
  5
14
330
5
100
AcDbSymbolTableRecord
100
AcDbLinetypeTableRecord
  2
ByBlock
 70
     0
  3

 72
    65
 73
     0
 40
0.0
  0
LTYPE
  5
15
330
5
100
AcDbSymbolTableRecord
100
AcDbLinetypeTableRecord
  2
ByLayer
 70
     0
  3

 72
    65
 73
     0
 40
0.0
  0
LTYPE
  5
16
330
5
100
AcDbSymbolTableRecord
100
AcDbLinetypeTableRecord
  2
Continuous
 70
     0
  3
Solid line
 72
    65
 73
     0
 40
0.0
  0
ENDTAB
  0
TABLE
  2
LAYER
  5
2
330
0
100
AcDbSymbolTable
 70
     5
  0
LAYER
  5
10
330
2
100
AcDbSymbolTableRecord
100
AcDbLayerTableRecord
  2
0
 70
     0
 62
     7
  6
Continuous
370
    -3
390
F
  0
LAYER
  5
3B
330
2
100
AcDbSymbolTableRecord
100
AcDbLayerTableRecord
  2
Ebene 1
 70
     0
 62
     7
  6
Continuous
370
    -3
390
F
  0
LAYER
  5
5C
330
2
100
AcDbSymbolTableRecord
100
AcDbLayerTableRecord
  2
Ebene 4
 70
     1
 62
     7
  6
Continuous
370
    -3
390
F
  0
LAYER
  5
5D
330
2
100
AcDbSymbolTableRecord
100
AcDbLayerTableRecord
  2
Ebene 2
 70
     1
 62
     7
  6
Continuous
370
    -3
390
F
  0
LAYER
  5
5E
330
2
100
AcDbSymbolTableRecord
100
AcDbLayerTableRecord
  2
Ebene 3
 70
     1
 62
     7
  6
Continuous
370
    -3
390
F
  0
ENDTAB
  0
TABLE
  2
STYLE
  5
3
330
0
100
AcDbSymbolTable
 70
     1
  0
STYLE
  5
11
330
3
100
AcDbSymbolTableRecord
100
AcDbTextStyleTableRecord
  2
Standard
 70
     0
 40
0.0
 41
1.0
 50
0.0
 71
     0
 42
0.2
  3
txt
  4

  0
ENDTAB
  0
TABLE
  2
VIEW
  5
6
330
0
100
AcDbSymbolTable
 70
     0
  0
ENDTAB
  0
TABLE
  2
UCS
  5
7
330
0
100
AcDbSymbolTable
 70
     0
  0
ENDTAB
  0
TABLE
  2
APPID
  5
9
330
0
100
AcDbSymbolTable
 70
     1
  0
APPID
  5
12
330
9
100
AcDbSymbolTableRecord
100
AcDbRegAppTableRecord
  2
ACAD
 70
     0
  0
ENDTAB
  0
TABLE
  2
DIMSTYLE
  5
A
330
0
100
AcDbSymbolTable
 70
     1
100
AcDbDimStyleTable
  0
DIMSTYLE
105
27
330
A
100
AcDbSymbolTableRecord
100
AcDbDimStyleTableRecord
  2
Standard
 70
     0
340
11
  0
ENDTAB
  0
TABLE
  2
BLOCK_RECORD
  5
1
330
0
100
AcDbSymbolTable
 70
     1
  0
BLOCK_RECORD
  5
1F
330
1
100
AcDbSymbolTableRecord
100
AcDbBlockTableRecord
  2
*Model_Space
340
22
  0
BLOCK_RECORD
  5
1B
330
1
100
AcDbSymbolTableRecord
100
AcDbBlockTableRecord
  2
*Paper_Space
340
1E
  0
BLOCK_RECORD
  5
23
330
1
100
AcDbSymbolTableRecord
100
AcDbBlockTableRecord
  2
*Paper_Space0
340
26
  0
ENDTAB
  0
ENDSEC
  0
SECTION
  2
BLOCKS
  0
BLOCK
  5
20
330
1F
100
AcDbEntity
  8
0
100
AcDbBlockBegin
  2
*Model_Space
 70
     0
 71
     0
 10
0.0
 20
0.0
 30
0.0
  3
*Model_Space
  1

  0
ENDBLK
  5
21
330
1F
100
AcDbEntity
  8
0
100
AcDbBlockEnd
  0
BLOCK
  5
1C
330
1B
100
AcDbEntity
 67
     1
  8
0
100
AcDbBlockBegin
  2
*Paper_Space
 70
     0
 71
     0
 10
0.0
 20
0.0
 30
0.0
  3
*Paper_Space
  1

  0
ENDBLK
  5
1D
330
1B
100
AcDbEntity
 67
     1
  8
0
100
AcDbBlockEnd
  0
BLOCK
  5
24
330
23
100
AcDbEntity
  8
0
100
AcDbBlockBegin
  2
*Paper_Space0
 70
     0
 71
     0
 10
0.0
 20
0.0
 30
0.0
  3
*Paper_Space0
  1

  0
ENDBLK
  5
25
330
23
100
AcDbEntity
  8
0
100
AcDbBlockEnd
  0
ENDSEC
  0
SECTION
  2
ENTITIES
  0
SPLINE
  5
3C
330
1F
100
AcDbEntity
  8
Ebene 1
 62
   250
420
  1842203
370
    18
100
AcDbSpline
210
0.0
220
0.0
230
1.0
 70
    11
 71
     3
 72
    17
 73
    13
 74
     0
 42
0.0000000001
 43
0.0000000001
 40
0.0
 40
0.0
 40
0.0
 40
0.0
 40
1.0
 40
1.0
 40
1.0
 40
2.0
 40
2.0
 40
2.0
 40
3.0
 40
3.0
 40
3.0
 40
4.0
 40
4.0
 40
4.0
 40
4.0
 10
25.93588459638061
 20
-95.40468476347522
 30
0.0
 10
25.93588459638061
 20
-95.84651825945852
 30
0.0
 10
25.57759466591463
 20
-96.20515269947302
 30
0.0
 10
25.13541666038281
 20
-96.20515269947302
 30
0.0
 10
24.69306640007673
 20
-96.20515269947302
 30
0.0
 10
24.33494872438501
 20
-95.84651825945852
 30
0.0
 10
24.33494872438501
 20
-95.40468476347522
 30
0.0
 10
24.33494872438501
 20
-94.9625067579434
 30
0.0
 10
24.69306640007673
 20
-94.60421682747742
 30
0.0
 10
25.13541666038281
 20
-94.60421682747742
 30
0.0
 10
25.57759466591463
 20
-94.60421682747742
 30
0.0
 10
25.93588459638061
 20
-94.9625067579434
 30
0.0
 10
25.93588459638061
 20
-95.40468476347522
 30
0.0
  0
SPLINE
  5
3D
330
1F
100
AcDbEntity
  8
Ebene 1
 62
   250
420
  1842203
370
    18
100
AcDbSpline
210
0.0
220
0.0
230
1.0
 70
    11
 71
     3
 72
    17
 73
    13
 74
     0
 42
0.0000000001
 43
0.0000000001
 40
0.0
 40
0.0
 40
0.0
 40
0.0
 40
1.0
 40
1.0
 40
1.0
 40
2.0
 40
2.0
 40
2.0
 40
3.0
 40
3.0
 40
3.0
 40
4.0
 40
4.0
 40
4.0
 40
4.0
 10
28.47595349765532
 20
-95.40502927302374
 30
0.0
 10
28.47595349765532
 20
-95.84686276900703
 30
0.0
 10
28.11766356718934
 20
-96.20532495424729
 30
0.0
 10
27.67531330688326
 20
-96.20532495424729
 30
0.0
 10
27.2333075561257
 20
-96.20532495424729
 30
0.0
 10
26.87501762565972
 20
-95.84686276900703
 30
0.0
 10
26.87501762565972
 20
-95.40502927302374
 30
0.0
 10
26.87501762565972
 20
-94.96267901271767
 30
0.0
 10
27.2333075561257
 20
-94.60456133702594
 30
0.0
 10
27.67531330688326
 20
-94.60456133702594
 30
0.0
 10
28.11766356718934
 20
-94.60456133702594
 30
0.0
 10
28.47595349765532
 20
-94.96267901271767
 30
0.0
 10
28.47595349765532
 20
-95.40502927302374
 30
0.0
  0
SPLINE
  5
3E
330
1F
100
AcDbEntity
  8
Ebene 1
 62
   250
420
  1842203
370
    18
100
AcDbSpline
210
0.0
220
0.0
230
1.0
 70
    11
 71
     3
 72
    17
 73
    13
 74
     0
 42
0.0000000001
 43
0.0000000001
 40
0.0
 40
0.0
 40
0.0
 40
0.0
 40
1.0
 40
1.0
 40
1.0
 40
2.0
 40
2.0
 40
2.0
 40
3.0
 40
3.0
 40
3.0
 40
4.0
 40
4.0
 40
4.0
 40
4.0
 10
31.01602239893002
 20
-95.40502927302374
 30
0.0
 10
31.01602239893002
 20
-95.84686276900703
 30
0.0
 10
30.65773246846404
 20
-96.20532495424729
 30
0.0
 10
30.21572671770649
 20
-96.20532495424729
 30
0.0
 10
29.77320420262614
 20
-96.20532495424729
 30
0.0
 10
29.41508652693442
 20
-95.84686276900703
 30
0.0
 10
29.41508652693442
 20
-95.40502927302374
 30
0.0
 10
29.41508652693442
 20
-94.96267901271767
 30
0.0
 10
29.77320420262614
 20
-94.60456133702594
 30
0.0
 10
30.21572671770649
 20
-94.60456133702594
 30
0.0
 10
30.65773246846404
 20
-94.60456133702594
 30
0.0
 10
31.01602239893002
 20
-94.96267901271767
 30
0.0
 10
31.01602239893002
 20
-95.40502927302374
 30
0.0
  0
SPLINE
  5
3F
330
1F
100
AcDbEntity
  8
Ebene 1
 62
   250
420
  1842203
370
    18
100
AcDbSpline
210
0.0
220
0.0
230
1.0
 70
    11
 71
     3
 72
    17
 73
    13
 74
     0
 42
0.0000000001
 43
0.0000000001
 40
0.0
 40
0.0
 40
0.0
 40
0.0
 40
1.0
 40
1.0
 40
1.0
 40
2.0
 40
2.0
 40
2.0
 40
3.0
 40
3.0
 40
3.0
 40
4.0
 40
4.0
 40
4.0
 40
4.0
 10
33.55591904543046
 20
-95.40468476347522
 30
0.0
 10
33.55591904543046
 20
-95.84651825945852
 30
0.0
 10
33.19762911496449
 20
-96.20515269947302
 30
0.0
 10
32.75527885465841
 20
-96.20515269947302
 30
0.0
 10
32.31310084912658
 20
-96.20515269947302
 30
0.0
 10
31.95498317343487
 20
-95.84651825945852
 30
0.0
 10
31.95498317343487
 20
-95.40468476347522
 30
0.0
 10
31.95498317343487
 20
-94.9625067579434
 30
0.0
 10
32.31310084912658
 20
-94.60421682747742
 30
0.0
 10
32.75527885465841
 20
-94.60421682747742
 30
0.0
 10
33.19762911496449
 20
-94.60421682747742
 30
0.0
 10
33.55591904543046
 20
-94.9625067579434
 30
0.0
 10
33.55591904543046
 20
-95.40468476347522
 30
0.0
  0
SPLINE
  5
40
330
1F
100
AcDbEntity
  8
Ebene 1
 62
   250
420
  1842203
370
    18
100
AcDbSpline
210
0.0
220
0.0
230
1.0
 70
    11
 71
     3
 72
    17
 73
    13
 74
     0
 42
0.0000000001
 43
0.0000000001
 40
0.0
 40
0.0
 40
0.0
 40
0.0
 40
1.0
 40
1.0
 40
1.0
 40
2.0
 40
2.0
 40
2.0
 40
3.0
 40
3.0
 40
3.0
 40
4.0
 40
4.0
 40
4.0
 40
4.0
 10
36.09598794670517
 20
-95.40502927302374
 30
0.0
 10
36.09598794670517
 20
-95.84686276900703
 30
0.0
 10
35.73787027101345
 20
-96.20532495424729
 30
0.0
 10
35.29534775593311
 20
-96.20532495424729
 30
0.0
 10
34.85316975040129
 20
-96.20532495424729
 30
0.0
 10
34.49505207470957
 20
-95.84686276900703
 30
0.0
 10
34.49505207470957
 20
-95.40502927302374
 30
0.0
 10
34.49505207470957
 20
-94.96267901271767
 30
0.0
 10
34.85316975040129
 20
-94.60456133702594
 30
0.0
 10
35.29534775593311
 20
-94.60456133702594
 30
0.0
 10
35.73787027101345
 20
-94.60456133702594
 30
0.0
 10
36.09598794670517
 20
-94.96267901271767
 30
0.0
 10
36.09598794670517
 20
-95.40502927302374
 30
0.0
  0
SPLINE
  5
41
330
1F
100
AcDbEntity
  8
Ebene 1
 62
   250
420
  1842203
370
    18
100
AcDbSpline
210
0.0
220
0.0
230
1.0
 70
    11
 71
     3
 72
    17
 73
    13
 74
     0
 42
0.0000000001
 43
0.0000000001
 40
0.0
 40
0.0
 40
0.0
 40
0.0
 40
1.0
 40
1.0
 40
1.0
 40
2.0
 40
2.0
 40
2.0
 40
3.0
 40
3.0
 40
3.0
 40
4.0
 40
4.0
 40
4.0
 40
4.0
 10
25.93588459638061
 20
-97.94475366474992
 30
0.0
 10
25.93588459638061
 20
-98.38658716073321
 30
0.0
 10
25.57759466591463
 20
-98.74522160074773
 30
0.0
 10
25.13541666038281
 20
-98.74522160074773
 30
0.0
 10
24.69306640007673
 20
-98.74522160074773
 30
0.0
 10
24.33494872438501
 20
-98.38658716073321
 30
0.0
 10
24.33494872438501
 20
-97.94475366474992
 30
0.0
 10
24.33494872438501
 20
-97.50257565921811
 30
0.0
 10
24.69306640007673
 20
-97.14428572875212
 30
0.0
 10
25.13541666038281
 20
-97.14428572875212
 30
0.0
 10
25.57759466591463
 20
-97.14428572875212
 30
0.0
 10
25.93588459638061
 20
-97.50257565921811
 30
0.0
 10
25.93588459638061
 20
-97.94475366474992
 30
0.0
  0
SPLINE
  5
42
330
1F
100
AcDbEntity
  8
Ebene 1
 62
   250
420
  1842203
370
    18
100
AcDbSpline
210
0.0
220
0.0
230
1.0
 70
    11
 71
     3
 72
    17
 73
    13
 74
     0
 42
0.0000000001
 43
0.0000000001
 40
0.0
 40
0.0
 40
0.0
 40
0.0
 40
1.0
 40
1.0
 40
1.0
 40
2.0
 40
2.0
 40
2.0
 40
3.0
 40
3.0
 40
3.0
 40
4.0
 40
4.0
 40
4.0
 40
4.0
 10
28.47595349765532
 20
-97.94509817429845
 30
0.0
 10
28.47595349765532
 20
-98.38693167028174
 30
0.0
 10
28.11766356718934
 20
-98.745393855522
 30
0.0
 10
27.67531330688326
 20
-98.745393855522
 30
0.0
 10
27.2333075561257
 20
-98.745393855522
 30
0.0
 10
26.87501762565972
 20
-98.38693167028174
 30
0.0
 10
26.87501762565972
 20
-97.94509817429845
 30
0.0
 10
26.87501762565972
 20
-97.50274791399238
 30
0.0
 10
27.2333075561257
 20
-97.14463023830065
 30
0.0
 10
27.67531330688326
 20
-97.14463023830065
 30
0.0
 10
28.11766356718934
 20
-97.14463023830065
 30
0.0
 10
28.47595349765532
 20
-97.50274791399238
 30
0.0
 10
28.47595349765532
 20
-97.94509817429845
 30
0.0
  0
SPLINE
  5
43
330
1F
100
AcDbEntity
  8
Ebene 1
 62
   250
420
  1842203
370
    18
100
AcDbSpline
210
0.0
220
0.0
230
1.0
 70
    11
 71
     3
 72
    17
 73
    13
 74
     0
 42
0.0000000001
 43
0.0000000001
 40
0.0
 40
0.0
 40
0.0
 40
0.0
 40
1.0
 40
1.0
 40
1.0
 40
2.0
 40
2.0
 40
2.0
 40
3.0
 40
3.0
 40
3.0
 40
4.0
 40
4.0
 40
4.0
 40
4.0
 10
31.01602239893002
 20
-97.94509817429845
 30
0.0
 10
31.01602239893002
 20
-98.38693167028174
 30
0.0
 10
30.65773246846404
 20
-98.745393855522
 30
0.0
 10
30.21572671770649
 20
-98.745393855522
 30
0.0
 10
29.77320420262614
 20
-98.745393855522
 30
0.0
 10
29.41508652693442
 20
-98.38693167028174
 30
0.0
 10
29.41508652693442
 20
-97.94509817429845
 30
0.0
 10
29.41508652693442
 20
-97.50274791399238
 30
0.0
 10
29.77320420262614
 20
-97.14463023830065
 30
0.0
 10
30.21572671770649
 20
-97.14463023830065
 30
0.0
 10
30.65773246846404
 20
-97.14463023830065
 30
0.0
 10
31.01602239893002
 20
-97.50274791399238
 30
0.0
 10
31.01602239893002
 20
-97.94509817429845
 30
0.0
  0
SPLINE
  5
44
330
1F
100
AcDbEntity
  8
Ebene 1
 62
   250
420
  1842203
370
    18
100
AcDbSpline
210
0.0
220
0.0
230
1.0
 70
    11
 71
     3
 72
    17
 73
    13
 74
     0
 42
0.0000000001
 43
0.0000000001
 40
0.0
 40
0.0
 40
0.0
 40
0.0
 40
1.0
 40
1.0
 40
1.0
 40
2.0
 40
2.0
 40
2.0
 40
3.0
 40
3.0
 40
3.0
 40
4.0
 40
4.0
 40
4.0
 40
4.0
 10
33.55591904543046
 20
-97.94475366474992
 30
0.0
 10
33.55591904543046
 20
-98.38658716073321
 30
0.0
 10
33.19762911496449
 20
-98.74522160074773
 30
0.0
 10
32.75527885465841
 20
-98.74522160074773
 30
0.0
 10
32.31310084912658
 20
-98.74522160074773
 30
0.0
 10
31.95498317343487
 20
-98.38658716073321
 30
0.0
 10
31.95498317343487
 20
-97.94475366474992
 30
0.0
 10
31.95498317343487
 20
-97.50257565921811
 30
0.0
 10
32.31310084912658
 20
-97.14428572875212
 30
0.0
 10
32.75527885465841
 20
-97.14428572875212
 30
0.0
 10
33.19762911496449
 20
-97.14428572875212
 30
0.0
 10
33.55591904543046
 20
-97.50257565921811
 30
0.0
 10
33.55591904543046
 20
-97.94475366474992
 30
0.0
  0
SPLINE
  5
45
330
1F
100
AcDbEntity
  8
Ebene 1
 62
   250
420
  1842203
370
    18
100
AcDbSpline
210
0.0
220
0.0
230
1.0
 70
    11
 71
     3
 72
    17
 73
    13
 74
     0
 42
0.0000000001
 43
0.0000000001
 40
0.0
 40
0.0
 40
0.0
 40
0.0
 40
1.0
 40
1.0
 40
1.0
 40
2.0
 40
2.0
 40
2.0
 40
3.0
 40
3.0
 40
3.0
 40
4.0
 40
4.0
 40
4.0
 40
4.0
 10
36.09598794670517
 20
-97.94509817429845
 30
0.0
 10
36.09598794670517
 20
-98.38693167028174
 30
0.0
 10
35.73787027101345
 20
-98.745393855522
 30
0.0
 10
35.29534775593311
 20
-98.745393855522
 30
0.0
 10
34.85316975040129
 20
-98.745393855522
 30
0.0
 10
34.49505207470957
 20
-98.38693167028174
 30
0.0
 10
34.49505207470957
 20
-97.94509817429845
 30
0.0
 10
34.49505207470957
 20
-97.50274791399238
 30
0.0
 10
34.85316975040129
 20
-97.14463023830065
 30
0.0
 10
35.29534775593311
 20
-97.14463023830065
 30
0.0
 10
35.73787027101345
 20
-97.14463023830065
 30
0.0
 10
36.09598794670517
 20
-97.50274791399238
 30
0.0
 10
36.09598794670517
 20
-97.94509817429845
 30
0.0
  0
SPLINE
  5
46
330
1F
100
AcDbEntity
  8
Ebene 1
 62
   250
420
  1842203
370
    18
100
AcDbSpline
210
0.0
220
0.0
230
1.0
 70
    11
 71
     3
 72
    17
 73
    13
 74
     0
 42
0.0000000001
 43
0.0000000001
 40
0.0
 40
0.0
 40
0.0
 40
0.0
 40
1.0
 40
1.0
 40
1.0
 40
2.0
 40
2.0
 40
2.0
 40
3.0
 40
3.0
 40
3.0
 40
4.0
 40
4.0
 40
4.0
 40
4.0
 10
25.93588459638061
 20
-100.4848225660246
 30
0.0
 10
25.93588459638061
 20
-100.9266560620079
 30
0.0
 10
25.57759466591463
 20
-101.2852905020224
 30
0.0
 10
25.13541666038281
 20
-101.2852905020224
 30
0.0
 10
24.69306640007673
 20
-101.2852905020224
 30
0.0
 10
24.33494872438501
 20
-100.9266560620079
 30
0.0
 10
24.33494872438501
 20
-100.4848225660246
 30
0.0
 10
24.33494872438501
 20
-100.0426445604928
 30
0.0
 10
24.69306640007673
 20
-99.68435463002683
 30
0.0
 10
25.13541666038281
 20
-99.68435463002683
 30
0.0
 10
25.57759466591463
 20
-99.68435463002683
 30
0.0
 10
25.93588459638061
 20
-100.0426445604928
 30
0.0
 10
25.93588459638061
 20
-100.4848225660246
 30
0.0
  0
SPLINE
  5
47
330
1F
100
AcDbEntity
  8
Ebene 1
 62
   250
420
  1842203
370
    18
100
AcDbSpline
210
0.0
220
0.0
230
1.0
 70
    11
 71
     3
 72
    17
 73
    13
 74
     0
 42
0.0000000001
 43
0.0000000001
 40
0.0
 40
0.0
 40
0.0
 40
0.0
 40
1.0
 40
1.0
 40
1.0
 40
2.0
 40
2.0
 40
2.0
 40
3.0
 40
3.0
 40
3.0
 40
4.0
 40
4.0
 40
4.0
 40
4.0
 10
28.47595349765532
 20
-100.4851670755732
 30
0.0
 10
28.47595349765532
 20
-100.9270005715564
 30
0.0
 10
28.11766356718934
 20
-101.2854627567967
 30
0.0
 10
27.67531330688326
 20
-101.2854627567967
 30
0.0
 10
27.2333075561257
 20
-101.2854627567967
 30
0.0
 10
26.87501762565972
 20
-100.9270005715564
 30
0.0
 10
26.87501762565972
 20
-100.4851670755732
 30
0.0
 10
26.87501762565972
 20
-100.0428168152671
 30
0.0
 10
27.2333075561257
 20
-99.68469913957536
 30
0.0
 10
27.67531330688326
 20
-99.68469913957536
 30
0.0
 10
28.11766356718934
 20
-99.68469913957536
 30
0.0
 10
28.47595349765532
 20
-100.0428168152671
 30
0.0
 10
28.47595349765532
 20
-100.4851670755732
 30
0.0
  0
SPLINE
  5
48
330
1F
100
AcDbEntity
  8
Ebene 1
 62
   250
420
  1842203
370
    18
100
AcDbSpline
210
0.0
220
0.0
230
1.0
 70
    11
 71
     3
 72
    17
 73
    13
 74
     0
 42
0.0000000001
 43
0.0000000001
 40
0.0
 40
0.0
 40
0.0
 40
0.0
 40
1.0
 40
1.0
 40
1.0
 40
2.0
 40
2.0
 40
2.0
 40
3.0
 40
3.0
 40
3.0
 40
4.0
 40
4.0
 40
4.0
 40
4.0
 10
31.01602239893002
 20
-100.4851670755732
 30
0.0
 10
31.01602239893002
 20
-100.9270005715564
 30
0.0
 10
30.65773246846404
 20
-101.2854627567967
 30
0.0
 10
30.21572671770649
 20
-101.2854627567967
 30
0.0
 10
29.77320420262614
 20
-101.2854627567967
 30
0.0
 10
29.41508652693442
 20
-100.9270005715564
 30
0.0
 10
29.41508652693442
 20
-100.4851670755732
 30
0.0
 10
29.41508652693442
 20
-100.0428168152671
 30
0.0
 10
29.77320420262614
 20
-99.68469913957536
 30
0.0
 10
30.21572671770649
 20
-99.68469913957536
 30
0.0
 10
30.65773246846404
 20
-99.68469913957536
 30
0.0
 10
31.01602239893002
 20
-100.0428168152671
 30
0.0
 10
31.01602239893002
 20
-100.4851670755732
 30
0.0
  0
SPLINE
  5
49
330
1F
100
AcDbEntity
  8
Ebene 1
 62
   250
420
  1842203
370
    18
100
AcDbSpline
210
0.0
220
0.0
230
1.0
 70
    11
 71
     3
 72
    17
 73
    13
 74
     0
 42
0.0000000001
 43
0.0000000001
 40
0.0
 40
0.0
 40
0.0
 40
0.0
 40
1.0
 40
1.0
 40
1.0
 40
2.0
 40
2.0
 40
2.0
 40
3.0
 40
3.0
 40
3.0
 40
4.0
 40
4.0
 40
4.0
 40
4.0
 10
33.55591904543046
 20
-100.4848225660246
 30
0.0
 10
33.55591904543046
 20
-100.9266560620079
 30
0.0
 10
33.19762911496449
 20
-101.2852905020224
 30
0.0
 10
32.75527885465841
 20
-101.2852905020224
 30
0.0
 10
32.31310084912658
 20
-101.2852905020224
 30
0.0
 10
31.95498317343487
 20
-100.9266560620079
 30
0.0
 10
31.95498317343487
 20
-100.4848225660246
 30
0.0
 10
31.95498317343487
 20
-100.0426445604928
 30
0.0
 10
32.31310084912658
 20
-99.68435463002683
 30
0.0
 10
32.75527885465841
 20
-99.68435463002683
 30
0.0
 10
33.19762911496449
 20
-99.68435463002683
 30
0.0
 10
33.55591904543046
 20
-100.0426445604928
 30
0.0
 10
33.55591904543046
 20
-100.4848225660246
 30
0.0
  0
SPLINE
  5
4A
330
1F
100
AcDbEntity
  8
Ebene 1
 62
   250
420
  1842203
370
    18
100
AcDbSpline
210
0.0
220
0.0
230
1.0
 70
    11
 71
     3
 72
    17
 73
    13
 74
     0
 42
0.0000000001
 43
0.0000000001
 40
0.0
 40
0.0
 40
0.0
 40
0.0
 40
1.0
 40
1.0
 40
1.0
 40
2.0
 40
2.0
 40
2.0
 40
3.0
 40
3.0
 40
3.0
 40
4.0
 40
4.0
 40
4.0
 40
4.0
 10
36.09598794670517
 20
-100.4851670755732
 30
0.0
 10
36.09598794670517
 20
-100.9270005715564
 30
0.0
 10
35.73787027101345
 20
-101.2854627567967
 30
0.0
 10
35.29534775593311
 20
-101.2854627567967
 30
0.0
 10
34.85316975040129
 20
-101.2854627567967
 30
0.0
 10
34.49505207470957
 20
-100.9270005715564
 30
0.0
 10
34.49505207470957
 20
-100.4851670755732
 30
0.0
 10
34.49505207470957
 20
-100.0428168152671
 30
0.0
 10
34.85316975040129
 20
-99.68469913957536
 30
0.0
 10
35.29534775593311
 20
-99.68469913957536
 30
0.0
 10
35.73787027101345
 20
-99.68469913957536
 30
0.0
 10
36.09598794670517
 20
-100.0428168152671
 30
0.0
 10
36.09598794670517
 20
-100.4851670755732
 30
0.0
  0
SPLINE
  5
4B
330
1F
100
AcDbEntity
  8
Ebene 1
 62
   250
420
  1842203
370
    18
100
AcDbSpline
210
0.0
220
0.0
230
1.0
 70
    11
 71
     3
 72
    17
 73
    13
 74
     0
 42
0.0000000001
 43
0.0000000001
 40
0.0
 40
0.0
 40
0.0
 40
0.0
 40
1.0
 40
1.0
 40
1.0
 40
2.0
 40
2.0
 40
2.0
 40
3.0
 40
3.0
 40
3.0
 40
4.0
 40
4.0
 40
4.0
 40
4.0
 10
25.93588459638061
 20
-103.0247192125251
 30
0.0
 10
25.93588459638061
 20
-103.4665527085084
 30
0.0
 10
25.57759466591463
 20
-103.8251871485229
 30
0.0
 10
25.13541666038281
 20
-103.8251871485229
 30
0.0
 10
24.69306640007673
 20
-103.8251871485229
 30
0.0
 10
24.33494872438501
 20
-103.4665527085084
 30
0.0
 10
24.33494872438501
 20
-103.0247192125251
 30
0.0
 10
24.33494872438501
 20
-102.5825412069933
 30
0.0
 10
24.69306640007673
 20
-102.2242512765273
 30
0.0
 10
25.13541666038281
 20
-102.2242512765273
 30
0.0
 10
25.57759466591463
 20
-102.2242512765273
 30
0.0
 10
25.93588459638061
 20
-102.5825412069933
 30
0.0
 10
25.93588459638061
 20
-103.0247192125251
 30
0.0
  0
SPLINE
  5
4C
330
1F
100
AcDbEntity
  8
Ebene 1
 62
   250
420
  1842203
370
    18
100
AcDbSpline
210
0.0
220
0.0
230
1.0
 70
    11
 71
     3
 72
    17
 73
    13
 74
     0
 42
0.0000000001
 43
0.0000000001
 40
0.0
 40
0.0
 40
0.0
 40
0.0
 40
1.0
 40
1.0
 40
1.0
 40
2.0
 40
2.0
 40
2.0
 40
3.0
 40
3.0
 40
3.0
 40
4.0
 40
4.0
 40
4.0
 40
4.0
 10
28.47595349765532
 20
-103.0250637220736
 30
0.0
 10
28.47595349765532
 20
-103.4668972180569
 30
0.0
 10
28.11766356718934
 20
-103.8253594032971
 30
0.0
 10
27.67531330688326
 20
-103.8253594032971
 30
0.0
 10
27.2333075561257
 20
-103.8253594032971
 30
0.0
 10
26.87501762565972
 20
-103.4668972180569
 30
0.0
 10
26.87501762565972
 20
-103.0250637220736
 30
0.0
 10
26.87501762565972
 20
-102.5827134617675
 30
0.0
 10
27.2333075561257
 20
-102.2245957860758
 30
0.0
 10
27.67531330688326
 20
-102.2245957860758
 30
0.0
 10
28.11766356718934
 20
-102.2245957860758
 30
0.0
 10
28.47595349765532
 20
-102.5827134617675
 30
0.0
 10
28.47595349765532
 20
-103.0250637220736
 30
0.0
  0
SPLINE
  5
4D
330
1F
100
AcDbEntity
  8
Ebene 1
 62
   250
420
  1842203
370
    18
100
AcDbSpline
210
0.0
220
0.0
230
1.0
 70
    11
 71
     3
 72
    17
 73
    13
 74
     0
 42
0.0000000001
 43
0.0000000001
 40
0.0
 40
0.0
 40
0.0
 40
0.0
 40
1.0
 40
1.0
 40
1.0
 40
2.0
 40
2.0
 40
2.0
 40
3.0
 40
3.0
 40
3.0
 40
4.0
 40
4.0
 40
4.0
 40
4.0
 10
31.01602239893002
 20
-103.0250637220736
 30
0.0
 10
31.01602239893002
 20
-103.4668972180569
 30
0.0
 10
30.65773246846404
 20
-103.8253594032971
 30
0.0
 10
30.21572671770649
 20
-103.8253594032971
 30
0.0
 10
29.77320420262614
 20
-103.8253594032971
 30
0.0
 10
29.41508652693442
 20
-103.4668972180569
 30
0.0
 10
29.41508652693442
 20
-103.0250637220736
 30
0.0
 10
29.41508652693442
 20
-102.5827134617675
 30
0.0
 10
29.77320420262614
 20
-102.2245957860758
 30
0.0
 10
30.21572671770649
 20
-102.2245957860758
 30
0.0
 10
30.65773246846404
 20
-102.2245957860758
 30
0.0
 10
31.01602239893002
 20
-102.5827134617675
 30
0.0
 10
31.01602239893002
 20
-103.0250637220736
 30
0.0
  0
SPLINE
  5
4E
330
1F
100
AcDbEntity
  8
Ebene 1
 62
   250
420
  1842203
370
    18
100
AcDbSpline
210
0.0
220
0.0
230
1.0
 70
    11
 71
     3
 72
    17
 73
    13
 74
     0
 42
0.0000000001
 43
0.0000000001
 40
0.0
 40
0.0
 40
0.0
 40
0.0
 40
1.0
 40
1.0
 40
1.0
 40
2.0
 40
2.0
 40
2.0
 40
3.0
 40
3.0
 40
3.0
 40
4.0
 40
4.0
 40
4.0
 40
4.0
 10
33.55591904543046
 20
-103.0247192125251
 30
0.0
 10
33.55591904543046
 20
-103.4665527085084
 30
0.0
 10
33.19762911496449
 20
-103.8251871485229
 30
0.0
 10
32.75527885465841
 20
-103.8251871485229
 30
0.0
 10
32.31310084912658
 20
-103.8251871485229
 30
0.0
 10
31.95498317343487
 20
-103.4665527085084
 30
0.0
 10
31.95498317343487
 20
-103.0247192125251
 30
0.0
 10
31.95498317343487
 20
-102.5825412069933
 30
0.0
 10
32.31310084912658
 20
-102.2242512765273
 30
0.0
 10
32.75527885465841
 20
-102.2242512765273
 30
0.0
 10
33.19762911496449
 20
-102.2242512765273
 30
0.0
 10
33.55591904543046
 20
-102.5825412069933
 30
0.0
 10
33.55591904543046
 20
-103.0247192125251
 30
0.0
  0
SPLINE
  5
4F
330
1F
100
AcDbEntity
  8
Ebene 1
 62
   250
420
  1842203
370
    18
100
AcDbSpline
210
0.0
220
0.0
230
1.0
 70
    11
 71
     3
 72
    17
 73
    13
 74
     0
 42
0.0000000001
 43
0.0000000001
 40
0.0
 40
0.0
 40
0.0
 40
0.0
 40
1.0
 40
1.0
 40
1.0
 40
2.0
 40
2.0
 40
2.0
 40
3.0
 40
3.0
 40
3.0
 40
4.0
 40
4.0
 40
4.0
 40
4.0
 10
36.09598794670517
 20
-103.0250637220736
 30
0.0
 10
36.09598794670517
 20
-103.4668972180569
 30
0.0
 10
35.73787027101345
 20
-103.8253594032971
 30
0.0
 10
35.29534775593311
 20
-103.8253594032971
 30
0.0
 10
34.85316975040129
 20
-103.8253594032971
 30
0.0
 10
34.49505207470957
 20
-103.4668972180569
 30
0.0
 10
34.49505207470957
 20
-103.0250637220736
 30
0.0
 10
34.49505207470957
 20
-102.5827134617675
 30
0.0
 10
34.85316975040129
 20
-102.2245957860758
 30
0.0
 10
35.29534775593311
 20
-102.2245957860758
 30
0.0
 10
35.73787027101345
 20
-102.2245957860758
 30
0.0
 10
36.09598794670517
 20
-102.5827134617675
 30
0.0
 10
36.09598794670517
 20
-103.0250637220736
 30
0.0
  0
SPLINE
  5
50
330
1F
100
AcDbEntity
  8
Ebene 1
 62
   250
420
  1842203
370
    18
100
AcDbSpline
210
0.0
220
0.0
230
1.0
 70
    11
 71
     3
 72
    17
 73
    13
 74
     0
 42
0.0000000001
 43
0.0000000001
 40
0.0
 40
0.0
 40
0.0
 40
0.0
 40
1.0
 40
1.0
 40
1.0
 40
2.0
 40
2.0
 40
2.0
 40
3.0
 40
3.0
 40
3.0
 40
4.0
 40
4.0
 40
4.0
 40
4.0
 10
25.93588459638061
 20
-105.5647881137998
 30
0.0
 10
25.93588459638061
 20
-106.0066216097831
 30
0.0
 10
25.57759466591463
 20
-106.3652560497976
 30
0.0
 10
25.13541666038281
 20
-106.3652560497976
 30
0.0
 10
24.69306640007673
 20
-106.3652560497976
 30
0.0
 10
24.33494872438501
 20
-106.0066216097831
 30
0.0
 10
24.33494872438501
 20
-105.5647881137998
 30
0.0
 10
24.33494872438501
 20
-105.122610108268
 30
0.0
 10
24.69306640007673
 20
-104.764320177802
 30
0.0
 10
25.13541666038281
 20
-104.764320177802
 30
0.0
 10
25.57759466591463
 20
-104.764320177802
 30
0.0
 10
25.93588459638061
 20
-105.122610108268
 30
0.0
 10
25.93588459638061
 20
-105.5647881137998
 30
0.0
  0
SPLINE
  5
51
330
1F
100
AcDbEntity
  8
Ebene 1
 62
   250
420
  1842203
370
    18
100
AcDbSpline
210
0.0
220
0.0
230
1.0
 70
    11
 71
     3
 72
    17
 73
    13
 74
     0
 42
0.0000000001
 43
0.0000000001
 40
0.0
 40
0.0
 40
0.0
 40
0.0
 40
1.0
 40
1.0
 40
1.0
 40
2.0
 40
2.0
 40
2.0
 40
3.0
 40
3.0
 40
3.0
 40
4.0
 40
4.0
 40
4.0
 40
4.0
 10
28.47595349765532
 20
-105.5651326233483
 30
0.0
 10
28.47595349765532
 20
-106.0069661193316
 30
0.0
 10
28.11766356718934
 20
-106.3654283045718
 30
0.0
 10
27.67531330688326
 20
-106.3654283045718
 30
0.0
 10
27.2333075561257
 20
-106.3654283045718
 30
0.0
 10
26.87501762565972
 20
-106.0069661193316
 30
0.0
 10
26.87501762565972
 20
-105.5651326233483
 30
0.0
 10
26.87501762565972
 20
-105.1227823630422
 30
0.0
 10
27.2333075561257
 20
-104.7646646873505
 30
0.0
 10
27.67531330688326
 20
-104.7646646873505
 30
0.0
 10
28.11766356718934
 20
-104.7646646873505
 30
0.0
 10
28.47595349765532
 20
-105.1227823630422
 30
0.0
 10
28.47595349765532
 20
-105.5651326233483
 30
0.0
  0
SPLINE
  5
52
330
1F
100
AcDbEntity
  8
Ebene 1
 62
   250
420
  1842203
370
    18
100
AcDbSpline
210
0.0
220
0.0
230
1.0
 70
    11
 71
     3
 72
    17
 73
    13
 74
     0
 42
0.0000000001
 43
0.0000000001
 40
0.0
 40
0.0
 40
0.0
 40
0.0
 40
1.0
 40
1.0
 40
1.0
 40
2.0
 40
2.0
 40
2.0
 40
3.0
 40
3.0
 40
3.0
 40
4.0
 40
4.0
 40
4.0
 40
4.0
 10
31.01602239893002
 20
-105.5651326233483
 30
0.0
 10
31.01602239893002
 20
-106.0069661193316
 30
0.0
 10
30.65773246846404
 20
-106.3654283045718
 30
0.0
 10
30.21572671770649
 20
-106.3654283045718
 30
0.0
 10
29.77320420262614
 20
-106.3654283045718
 30
0.0
 10
29.41508652693442
 20
-106.0069661193316
 30
0.0
 10
29.41508652693442
 20
-105.5651326233483
 30
0.0
 10
29.41508652693442
 20
-105.1227823630422
 30
0.0
 10
29.77320420262614
 20
-104.7646646873505
 30
0.0
 10
30.21572671770649
 20
-104.7646646873505
 30
0.0
 10
30.65773246846404
 20
-104.7646646873505
 30
0.0
 10
31.01602239893002
 20
-105.1227823630422
 30
0.0
 10
31.01602239893002
 20
-105.5651326233483
 30
0.0
  0
SPLINE
  5
53
330
1F
100
AcDbEntity
  8
Ebene 1
 62
   250
420
  1842203
370
    18
100
AcDbSpline
210
0.0
220
0.0
230
1.0
 70
    11
 71
     3
 72
    17
 73
    13
 74
     0
 42
0.0000000001
 43
0.0000000001
 40
0.0
 40
0.0
 40
0.0
 40
0.0
 40
1.0
 40
1.0
 40
1.0
 40
2.0
 40
2.0
 40
2.0
 40
3.0
 40
3.0
 40
3.0
 40
4.0
 40
4.0
 40
4.0
 40
4.0
 10
33.55591904543046
 20
-105.5647881137998
 30
0.0
 10
33.55591904543046
 20
-106.0066216097831
 30
0.0
 10
33.19762911496449
 20
-106.3652560497976
 30
0.0
 10
32.75527885465841
 20
-106.3652560497976
 30
0.0
 10
32.31310084912658
 20
-106.3652560497976
 30
0.0
 10
31.95498317343487
 20
-106.0066216097831
 30
0.0
 10
31.95498317343487
 20
-105.5647881137998
 30
0.0
 10
31.95498317343487
 20
-105.122610108268
 30
0.0
 10
32.31310084912658
 20
-104.764320177802
 30
0.0
 10
32.75527885465841
 20
-104.764320177802
 30
0.0
 10
33.19762911496449
 20
-104.764320177802
 30
0.0
 10
33.55591904543046
 20
-105.122610108268
 30
0.0
 10
33.55591904543046
 20
-105.5647881137998
 30
0.0
  0
SPLINE
  5
54
330
1F
100
AcDbEntity
  8
Ebene 1
 62
   250
420
  1842203
370
    18
100
AcDbSpline
210
0.0
220
0.0
230
1.0
 70
    11
 71
     3
 72
    17
 73
    13
 74
     0
 42
0.0000000001
 43
0.0000000001
 40
0.0
 40
0.0
 40
0.0
 40
0.0
 40
1.0
 40
1.0
 40
1.0
 40
2.0
 40
2.0
 40
2.0
 40
3.0
 40
3.0
 40
3.0
 40
4.0
 40
4.0
 40
4.0
 40
4.0
 10
36.09598794670517
 20
-105.5651326233483
 30
0.0
 10
36.09598794670517
 20
-106.0069661193316
 30
0.0
 10
35.73787027101345
 20
-106.3654283045718
 30
0.0
 10
35.29534775593311
 20
-106.3654283045718
 30
0.0
 10
34.85316975040129
 20
-106.3654283045718
 30
0.0
 10
34.49505207470957
 20
-106.0069661193316
 30
0.0
 10
34.49505207470957
 20
-105.5651326233483
 30
0.0
 10
34.49505207470957
 20
-105.1227823630422
 30
0.0
 10
34.85316975040129
 20
-104.7646646873505
 30
0.0
 10
35.29534775593311
 20
-104.7646646873505
 30
0.0
 10
35.73787027101345
 20
-104.7646646873505
 30
0.0
 10
36.09598794670517
 20
-105.1227823630422
 30
0.0
 10
36.09598794670517
 20
-105.5651326233483
 30
0.0
  0
POLYLINE
  5
55
330
1F
100
AcDbEntity
  8
Ebene 1
 62
   250
420
  1842203
370
    18
100
AcDb2dPolyline
 66
     1
 10
0.0
 20
0.0
 30
0.0
  0
VERTEX
  5
56
330
55
100
AcDbEntity
  8
Ebene 1
 62
   250
420
  1842203
370
    18
100
AcDbVertex
100
AcDb2dVertex
 10
37.21512721508858
 20
-107.4847398277295
 30
0.0
  0
VERTEX
  5
57
330
55
100
AcDbEntity
  8
Ebene 1
 62
   250
420
  1842203
370
    18
100
AcDbVertex
100
AcDb2dVertex
 10
23.21529269167882
 20
-107.4847398277295
 30
0.0
  0
VERTEX
  5
58
330
55
100
AcDbEntity
  8
Ebene 1
 62
   250
420
  1842203
370
    18
100
AcDbVertex
100
AcDb2dVertex
 10
23.21529269167882
 20
-93.48473304954548
 30
0.0
  0
VERTEX
  5
59
330
55
100
AcDbEntity
  8
Ebene 1
 62
   250
420
  1842203
370
    18
100
AcDbVertex
100
AcDb2dVertex
 10
37.21512721508858
 20
-93.48473304954548
 30
0.0
  0
VERTEX
  5
5A
330
55
100
AcDbEntity
  8
Ebene 1
 62
   250
420
  1842203
370
    18
100
AcDbVertex
100
AcDb2dVertex
 10
37.21512721508858
 20
-107.4847398277295
 30
0.0
  0
SEQEND
  5
5B
330
55
100
AcDbEntity
  8
Ebene 1
370
    18
  0
ENDSEC
  0
SECTION
  2
OBJECTS
  0
DICTIONARY
  5
C
330
0
100
AcDbDictionary
281
     1
  3
ACAD_GROUP
350
D
  3
ACAD_LAYOUT
350
1A
  3
ACAD_MLINESTYLE
350
17
  3
ACAD_PLOTSETTINGS
350
19
  3
ACAD_PLOTSTYLENAME
350
E
  3
ACAD_TABLESTYLE
350
5F
  3
ACAD_VISUALSTYLE
350
2A
  0
DICTIONARY
  5
D
102
{ACAD_REACTORS
330
C
102
}
330
C
100
AcDbDictionary
281
     1
  0
DICTIONARY
  5
1A
102
{ACAD_REACTORS
330
C
102
}
330
C
100
AcDbDictionary
281
     1
  3
Layout1
350
1E
  3
Layout2
350
26
  3
Model
350
22
  0
DICTIONARY
  5
17
102
{ACAD_REACTORS
330
C
102
}
330
C
100
AcDbDictionary
281
     1
  3
Standard
350
18
  0
DICTIONARY
  5
19
102
{ACAD_REACTORS
330
C
102
}
330
C
100
AcDbDictionary
281
     1
  0
ACDBDICTIONARYWDFLT
  5
E
102
{ACAD_REACTORS
330
C
102
}
330
C
100
AcDbDictionary
281
     1
  3
Normal
350
F
100
AcDbDictionaryWithDefault
340
F
  0
DICTIONARY
  5
5F
102
{ACAD_REACTORS
330
C
102
}
330
C
100
AcDbDictionary
281
     1
  0
DICTIONARY
  5
2A
102
{ACAD_REACTORS
330
C
102
}
330
C
100
AcDbDictionary
281
     1
  3
2dWireframe
350
2F
  3
3D Hidden
350
31
  3
3dWireframe
350
30
  3
Basic
350
32
  3
Brighten
350
36
  3
ColorChange
350
3A
  3
Conceptual
350
34
  3
Dim
350
35
  3
Facepattern
350
39
  3
Flat
350
2B
  3
FlatWithEdges
350
2C
  3
Gouraud
350
2D
  3
GouraudWithEdges
350
2E
  3
Linepattern
350
38
  3
Realistic
350
33
  3
Thicken
350
37
  0
LAYOUT
  5
1E
102
{ACAD_REACTORS
330
1A
102
}
330
1A
100
AcDbPlotSettings
  1

  2
none_device
  4

  6

 40
0.0
 41
0.0
 42
0.0
 43
0.0
 44
0.0
 45
0.0
 46
0.0
 47
0.0
 48
0.0
 49
0.0
140
0.0
141
0.0
142
1.0
143
1.0
 70
   688
 72
     0
 73
     0
 74
     5
  7

 75
    16
 76
     0
 77
     2
 78
   300
147
1.0
148
0.0
149
0.0
100
AcDbLayout
  1
Layout1
 70
     1
 71
     1
 10
0.0
 20
0.0
 11
12.0
 21
9.0
 12
0.0
 22
0.0
 32
0.0
 14
1.000000000000000E+20
 24
1.000000000000000E+20
 34
1.000000000000000E+20
 15
-1.000000000000000E+20
 25
-1.000000000000000E+20
 35
-1.000000000000000E+20
146
0.0
 13
0.0
 23
0.0
 33
0.0
 16
1.0
 26
0.0
 36
0.0
 17
0.0
 27
1.0
 37
0.0
 76
     0
330
1B
  0
LAYOUT
  5
26
102
{ACAD_REACTORS
330
1A
102
}
330
1A
100
AcDbPlotSettings
  1

  2
none_device
  4

  6

 40
0.0
 41
0.0
 42
0.0
 43
0.0
 44
0.0
 45
0.0
 46
0.0
 47
0.0
 48
0.0
 49
0.0
140
0.0
141
0.0
142
1.0
143
1.0
 70
   688
 72
     0
 73
     0
 74
     5
  7

 75
    16
 76
     0
 77
     2
 78
   300
147
1.0
148
0.0
149
0.0
100
AcDbLayout
  1
Layout2
 70
     1
 71
     2
 10
0.0
 20
0.0
 11
0.0
 21
0.0
 12
0.0
 22
0.0
 32
0.0
 14
0.0
 24
0.0
 34
0.0
 15
0.0
 25
0.0
 35
0.0
146
0.0
 13
0.0
 23
0.0
 33
0.0
 16
1.0
 26
0.0
 36
0.0
 17
0.0
 27
1.0
 37
0.0
 76
     0
330
23
  0
LAYOUT
  5
22
102
{ACAD_REACTORS
330
1A
102
}
330
1A
100
AcDbPlotSettings
  1

  2
none_device
  4

  6

 40
0.0
 41
0.0
 42
0.0
 43
0.0
 44
0.0
 45
0.0
 46
0.0
 47
0.0
 48
0.0
 49
0.0
140
0.0
141
0.0
142
1.0
143
1.0
 70
  1712
 72
     0
 73
     0
 74
     0
  7

 75
     0
 76
     0
 77
     2
 78
   300
147
1.0
148
0.0
149
0.0
100
AcDbLayout
  1
Model
 70
     1
 71
     0
 10
0.0
 20
0.0
 11
12.0
 21
9.0
 12
0.0
 22
0.0
 32
0.0
 14
1.000000000000000E+20
 24
1.000000000000000E+20
 34
1.000000000000000E+20
 15
-1.000000000000000E+20
 25
-1.000000000000000E+20
 35
-1.000000000000000E+20
146
0.0
 13
0.0
 23
0.0
 33
0.0
 16
1.0
 26
0.0
 36
0.0
 17
0.0
 27
1.0
 37
0.0
 76
     0
330
1F
331
29
  0
MLINESTYLE
  5
18
102
{ACAD_REACTORS
330
17
102
}
330
17
100
AcDbMlineStyle
  2
Standard
 70
     0
  3

 62
   256
 51
90.0
 52
90.0
 71
     2
 49
0.5
 62
   256
  6
BYLAYER
 49
-0.5
 62
   256
  6
BYLAYER
  0
ACDBPLACEHOLDER
  5
F
102
{ACAD_REACTORS
330
E
102
}
330
E
  0
VISUALSTYLE
  5
2F
102
{ACAD_REACTORS
330
2A
102
}
330
2A
100
AcDbVisualStyle
  2
2dWireframe
 70
     4
 71
     0
 72
     2
 73
     0
 90
        0
 40
-0.6
 41
-30.0
 62
     5
 63
     7
421
 16777215
 74
     1
 91
        4
 64
     7
 65
   257
 75
     1
175
     1
 42
1.0
 92
        0
 66
   257
 43
1.0
 76
     1
 77
     6
 78
     2
 67
     7
 79
     5
170
     0
171
     0
290
     0
174
     0
 93
        1
 44
0.0
173
     0
291
     0
 45
0.0
1001
ACAD
1000
AcDbSavedByObjectVersion
1070
     0
  0
VISUALSTYLE
  5
31
102
{ACAD_REACTORS
330
2A
102
}
330
2A
100
AcDbVisualStyle
  2
3D Hidden
 70
     6
 71
     1
 72
     2
 73
     2
 90
        0
 40
-0.6
 41
-30.0
 62
     5
 63
     7
421
 16777215
 74
     2
 91
        2
 64
     7
 65
   257
 75
     2
175
     1
 42
40.0
 92
        0
 66
   257
 43
1.0
 76
     1
 77
     6
 78
     2
 67
     7
 79
     3
170
     0
171
     0
290
     0
174
     0
 93
        1
 44
0.0
173
     0
291
     0
 45
0.0
1001
ACAD
1000
AcDbSavedByObjectVersion
1070
     0
  0
VISUALSTYLE
  5
30
102
{ACAD_REACTORS
330
2A
102
}
330
2A
100
AcDbVisualStyle
  2
3dWireframe
 70
     5
 71
     0
 72
     2
 73
     0
 90
        0
 40
-0.6
 41
-30.0
 62
     5
 63
     7
421
 16777215
 74
     1
 91
        4
 64
     7
 65
   257
 75
     1
175
     1
 42
1.0
 92
        0
 66
   257
 43
1.0
 76
     1
 77
     6
 78
     2
 67
     7
 79
     5
170
     0
171
     0
290
     0
174
     0
 93
        1
 44
0.0
173
     0
291
     0
 45
0.0
1001
ACAD
1000
AcDbSavedByObjectVersion
1070
     0
  0
VISUALSTYLE
  5
32
102
{ACAD_REACTORS
330
2A
102
}
330
2A
100
AcDbVisualStyle
  2
Basic
 70
     7
 71
     1
 72
     0
 73
     1
 90
        0
 40
-0.6
 41
-30.0
 62
     5
 63
     7
421
 16777215
 74
     0
 91
        4
 64
     7
 65
   257
 75
     1
175
     1
 42
1.0
 92
        8
 66
     7
 43
1.0
 76
     1
 77
     6
 78
     2
 67
     7
 79
     5
170
     0
171
     0
290
     0
174
     0
 93
        1
 44
0.0
173
     0
291
     1
 45
0.0
1001
ACAD
1000
AcDbSavedByObjectVersion
1070
     0
  0
VISUALSTYLE
  5
36
102
{ACAD_REACTORS
330
2A
102
}
330
2A
100
AcDbVisualStyle
  2
Brighten
 70
    12
 71
     2
 72
     2
 73
     0
 90
        0
 40
-0.6
 41
-30.0
 62
     5
 63
     7
421
 16777215
 74
     1
 91
        4
 64
     7
 65
   257
 75
     1
175
     1
 42
1.0
 92
        8
 66
     7
 43
1.0
 76
     1
 77
     6
 78
     2
 67
     7
 79
     5
170
     0
171
     0
290
     0
174
     0
 93
        1
 44
50.0
173
     0
291
     1
 45
0.0
1001
ACAD
1000
AcDbSavedByObjectVersion
1070
     0
  0
VISUALSTYLE
  5
3A
102
{ACAD_REACTORS
330
2A
102
}
330
2A
100
AcDbVisualStyle
  2
ColorChange
 70
    16
 71
     2
 72
     2
 73
     3
 90
        0
 40
-0.6
 41
-30.0
 62
     5
 63
     8
421
  8421504
 74
     1
 91
        4
 64
     7
 65
   257
 75
     1
175
     1
 42
1.0
 92
        8
 66
     8
424
  8421504
 43
1.0
 76
     1
 77
     6
 78
     2
 67
     7
 79
     5
170
     0
171
     0
290
     0
174
     0
 93
        1
 44
0.0
173
     0
291
     1
 45
0.0
1001
ACAD
1000
AcDbSavedByObjectVersion
1070
     0
  0
VISUALSTYLE
  5
34
102
{ACAD_REACTORS
330
2A
102
}
330
2A
100
AcDbVisualStyle
  2
Conceptual
 70
     9
 71
     3
 72
     2
 73
     0
 90
        0
 40
-0.6
 41
-30.0
 62
     5
 63
     7
421
 16777215
 74
     2
 91
        2
 64
     7
 65
   257
 75
     1
175
     1
 42
40.0
 92
        8
 66
     7
 43
1.0
 76
     1
 77
     6
 78
     2
 67
     7
 79
     3
170
     0
171
     0
290
     0
174
     0
 93
        1
 44
0.0
173
     0
291
     0
 45
0.0
1001
ACAD
1000
AcDbSavedByObjectVersion
1070
     0
  0
VISUALSTYLE
  5
35
102
{ACAD_REACTORS
330
2A
102
}
330
2A
100
AcDbVisualStyle
  2
Dim
 70
    11
 71
     2
 72
     2
 73
     0
 90
        0
 40
-0.6
 41
-30.0
 62
     5
 63
     7
421
 16777215
 74
     1
 91
        4
 64
     7
 65
   257
 75
     1
175
     1
 42
1.0
 92
        8
 66
     7
 43
1.0
 76
     1
 77
     6
 78
     2
 67
     7
 79
     5
170
     0
171
     0
290
     0
174
     0
 93
        1
 44
-50.0
173
     0
291
     1
 45
0.0
1001
ACAD
1000
AcDbSavedByObjectVersion
1070
     0
  0
VISUALSTYLE
  5
39
102
{ACAD_REACTORS
330
2A
102
}
330
2A
100
AcDbVisualStyle
  2
Facepattern
 70
    15
 71
     2
 72
     2
 73
     0
 90
        0
 40
-0.6
 41
-30.0
 62
     5
 63
     7
421
 16777215
 74
     1
 91
        4
 64
     7
 65
   257
 75
     1
175
     1
 42
1.0
 92
        8
 66
     7
 43
1.0
 76
     1
 77
     6
 78
     2
 67
     7
 79
     5
170
     0
171
     0
290
     0
174
     0
 93
        1
 44
0.0
173
     0
291
     1
 45
0.0
1001
ACAD
1000
AcDbSavedByObjectVersion
1070
     0
  0
VISUALSTYLE
  5
2B
102
{ACAD_REACTORS
330
2A
102
}
330
2A
100
AcDbVisualStyle
  2
Flat
 70
     0
 71
     2
 72
     1
 73
     1
 90
        2
 40
-0.6
 41
30.0
 62
     5
 63
     7
421
 16777215
 74
     0
 91
        4
 64
     7
 65
   257
 75
     1
175
     1
 42
1.0
 92
        8
 66
     7
 43
1.0
 76
     1
 77
     6
 78
     2
 67
     7
 79
     5
170
     0
171
     0
290
     0
174
     0
 93
       13
 44
0.0
173
     0
291
     1
 45
0.0
1001
ACAD
1000
AcDbSavedByObjectVersion
1070
     0
  0
VISUALSTYLE
  5
2C
102
{ACAD_REACTORS
330
2A
102
}
330
2A
100
AcDbVisualStyle
  2
FlatWithEdges
 70
     1
 71
     2
 72
     1
 73
     1
 90
        2
 40
-0.6
 41
30.0
 62
     5
 63
     7
421
 16777215
 74
     1
 91
        4
 64
     7
 65
   257
 75
     1
175
     1
 42
1.0
 92
        0
 66
   257
 43
1.0
 76
     1
 77
     6
 78
     2
 67
     7
 79
     5
170
     0
171
     0
290
     0
174
     0
 93
       13
 44
0.0
173
     0
291
     1
 45
0.0
1001
ACAD
1000
AcDbSavedByObjectVersion
1070
     0
  0
VISUALSTYLE
  5
2D
102
{ACAD_REACTORS
330
2A
102
}
330
2A
100
AcDbVisualStyle
  2
Gouraud
 70
     2
 71
     2
 72
     2
 73
     1
 90
        2
 40
-0.6
 41
30.0
 62
     5
 63
     7
421
 16777215
 74
     0
 91
        4
 64
     7
 65
   257
 75
     1
175
     1
 42
1.0
 92
        0
 66
     7
 43
1.0
 76
     1
 77
     6
 78
     2
 67
     7
 79
     5
170
     0
171
     0
290
     0
174
     0
 93
       13
 44
0.0
173
     0
291
     1
 45
0.0
1001
ACAD
1000
AcDbSavedByObjectVersion
1070
     0
  0
VISUALSTYLE
  5
2E
102
{ACAD_REACTORS
330
2A
102
}
330
2A
100
AcDbVisualStyle
  2
GouraudWithEdges
 70
     3
 71
     2
 72
     2
 73
     1
 90
        2
 40
-0.6
 41
30.0
 62
     5
 63
     7
421
 16777215
 74
     1
 91
        4
 64
     7
 65
   257
 75
     1
175
     1
 42
1.0
 92
        0
 66
   257
 43
1.0
 76
     1
 77
     6
 78
     2
 67
     7
 79
     5
170
     0
171
     0
290
     0
174
     0
 93
       13
 44
0.0
173
     0
291
     1
 45
0.0
1001
ACAD
1000
AcDbSavedByObjectVersion
1070
     0
  0
VISUALSTYLE
  5
38
102
{ACAD_REACTORS
330
2A
102
}
330
2A
100
AcDbVisualStyle
  2
Linepattern
 70
    14
 71
     2
 72
     2
 73
     0
 90
        0
 40
-0.6
 41
-30.0
 62
     5
 63
     7
421
 16777215
 74
     1
 91
        4
 64
     7
 65
   257
 75
     7
175
     7
 42
1.0
 92
        8
 66
     7
 43
1.0
 76
     1
 77
     6
 78
     2
 67
     7
 79
     5
170
     0
171
     0
290
     0
174
     0
 93
        1
 44
0.0
173
     0
291
     1
 45
0.0
1001
ACAD
1000
AcDbSavedByObjectVersion
1070
     0
  0
VISUALSTYLE
  5
33
102
{ACAD_REACTORS
330
2A
102
}
330
2A
100
AcDbVisualStyle
  2
Realistic
 70
     8
 71
     2
 72
     2
 73
     0
 90
        0
 40
-0.6
 41
-30.0
 62
     5
 63
     7
421
 16777215
 74
     1
 91
        0
 64
     7
 65
   257
 75
     1
175
     1
 42
1.0
 92
        8
 66
     8
424
  7895160
 43
1.0
 76
     1
 77
     6
 78
     2
 67
     7
 79
     5
170
     0
171
     0
290
     0
174
     0
 93
       13
 44
0.0
173
     0
291
     0
 45
0.0
1001
ACAD
1000
AcDbSavedByObjectVersion
1070
     0
  0
VISUALSTYLE
  5
37
102
{ACAD_REACTORS
330
2A
102
}
330
2A
100
AcDbVisualStyle
  2
Thicken
 70
    13
 71
     2
 72
     2
 73
     0
 90
        0
 40
-0.6
 41
-30.0
 62
     5
 63
     7
421
 16777215
 74
     1
 91
        4
 64
     7
 65
   257
 75
     1
175
     1
 42
1.0
 92
       12
 66
     7
 43
1.0
 76
     1
 77
     6
 78
     2
 67
     7
 79
     5
170
     0
171
     0
290
     0
174
     0
 93
        1
 44
0.0
173
     0
291
     1
 45
0.0
1001
ACAD
1000
AcDbSavedByObjectVersion
1070
     0
  0
ENDSEC
  0
EOF
